Oops, an error
Loading. Please wait.

There She Goes chords

version 4
version 4

Whole song

Interactive

13,728 views 171 this week
1 commentread comment
1 2 3 4 5
x 13
add to favorites
×
Save as Personal and add changes to this tab that will be seen only by you. Learn more ›
×
You can save this tab as Personal to edit and correct it or add notes. All changes will be seen only by you. Learn more »
launch autoscroll
font size
0
reset
transpose
0
reset
simplify chords
display chords
guitar tuner
edit
Autoscroll
slow
fast
+/-
esc
set tempo
stop
Strumming
There is no strumming pattern for this song yet. and get +5 IQ
[Intro] x5
e|-----3-----5-----2-----3-----O-----O-----O----------|
B|--3-----3-----3-----3-----3-----3-----3-----3------3|
G|------------------------------------------------O---|
D|----------------------------------------------------|
A|----------------------------------------------------|
E|----------------------------------------------------|

[Then intro end]
e|E--0--3--5---3-0--------0h3-0h3-0h3--------------00------|
B|--------------------3---------------------------3333-33--|
G|------------------------------------------------2222-22--|
D|------------------------------------------------0000-00--|
A|---------------------------------------------------------|
E|---------------------------------------------------------|

[Interlude]
e|E--0-3-5-----0-3-5---0-3-5-3-0------0h3-0h3-0h3-----------0-0---|
B|----------3----------3---------------3--------------3-3-3-3-3-3-|
G|----------------------------------------------------2-2-2-2-2-2-|
D|----------------------------------------------------0-0-0-0-0-0-|
A|----------------------------------------------------------------|
E|----------------------------------------------------------------|


[Verse]
G     D   C    D     G         D     C     D
There she goes.      There she goes again 
G      D          C      D
Racing through my brain
Am         G        C          Am     G      C       D    
And I just can't contain. This feelin that remains.
G     D   C     D
There she blows
G         D     C     D
There she blows again
G       D          C   D
Pulsing through my vein
Am          G       C          Am     G      C       D    
And I just can't contain. This feelin that remains.


[Repeat intro 3x]


[Interlude]
Em        C     Em             C   
There she goes, there she goes again
    D        G     D        Cadd9
She calls my name, pulls my train
D      G          D       C
No-one else could heal my pain
Am                  Em         C      Am      G     C     D    
And I just can't contain. This feelin that remains.


[Verse]
G     D   C    D     G         D     C    D
There she goes.      There she goes again 
G       D        C     D
Chasing down my lane
Am         G        C          Am     G    C         D    
And I just can't contain. This feelin that remains.
                (she calls my name (harmony))

[Outro] 
G     D   C   D 
There she goes   (she calls my name)
G     D   C   D 
There she goes   (she calls my name)
G     D   C   D 
There she goes   (she calls my name)
G

            
            
Suggest correction
Creating personal tab
Creating personal tab
You can edit any tab online and save it as your Personal.

You can edit, replace or remove any tab part or add personal notes – all changes will be seen only by you.

Personal tabs can be accessed anytime from any device, even offline.
Learn more »
comments
print report bad tab
1 comment total.
0 reply
phubbyawesomegu 21 Jan 23, 2017 03:28 PM

Beauty
love it

guest
You may want to rate the tab now too:
select rating
Wanna post a correction for this tab? Suggest correction