Oops, an error
Loading. Please wait.

Come What May tab

55 views 1 this week
no commentswrite comment
1 2 3 4 5
3 more votes to show rating
add to favorites
×
Save as Personal and add changes to this tab that will be seen only by you. Learn more ›
×
You can save this tab as Personal to edit and correct it or add notes. All changes will be seen only by you. Learn more »
launch autoscroll
font size
0
reset
how to read this tab
guitar tuner
edit
Autoscroll
slow
fast
+/-
esc
set tempo
stop
Author
The melody and the chords are pretty simple. 
You can skip G7 if you find it difficult to switch fast. 
To be honest, I am skeptical if it is G7 but it sounds like he plays G7 between G and Am. 
enjoy :)



Chords:
    Am     Asus4     G     G7
e|--5--------5-------3-----3----|
B|--5--------5-------3-----3----|
G|--5--------7-------4-----4----|
D|--7--------7-------5-----3----|
A|--7--------5-------5-----5----|
E|--5--------5-------3-----3----|


[Intro]

e|---------------|
B|-----------0~--|
G|--------5------|x7
D|-----7---------|
A|--0------------|
E|---------------|


[Verse]

e|-----------------------------------------------|----------------------------------------------|
B|-----------0~---------0~---------0~---------0~-|-----------0~---------0~--------0~---------0~-|
G|--------5----------5----------5----------5-----|--------4----------4----------4---------4-----|
D|-----7----------7----------7----------7--------|-----6----------6----------6---------6--------|
A|--0----------0----------0----------0-----------|--5----------5----------5---------5-----------|
E|-----------------------------------------------|----------------------------------------------|
    I know     your       intentions                but,      you’ve   not      mentioned
e|-----------------------------------------------|----------------------------------------------|
B|-----------0~---------0~---------0~---------0~-|-----------0~---------0~--------0~---------0~-|
G|--------7----------7----------7----------7-----|--------5----------5----------5---------5-----|
D|-----7----------7----------7----------7--------|-----7----------7----------6---------6--------|
A|--5----------5----------5----------5-----------|--7----------7----------5---------5-----------|
E|-----------------------------------------------|----------------------------------------------|
    Mine,                   nevermind,              they        were              realized

e|-----------------------------------------------|----------------------------------------------|
B|-----------0~---------0~---------0~---------0~-|-----------0~---------0~--------0~---------0~-|
G|--------5----------5----------5----------5-----|--------4----------4----------4---------4-----|
D|-----7----------7----------7----------7--------|-----6----------6----------6---------6--------|
A|--0----------0----------0----------0-----------|--5----------5----------5---------5-----------|
E|-----------------------------------------------|----------------------------------------------|
    Oh,       of                  attentions        caught      in            suspension 
e|-----------------------------------------------|----------------------------------------------|
B|-----------0~---------0~---------0~---------0~-|-----------0~---------0~--------0~---------0~-|
G|--------7----------7----------7----------7-----|--------5----------5----------5---------5-----|
D|-----7----------7----------7----------7--------|-----7----------7----------6---------6--------|
A|--5----------5----------5----------5-----------|--7----------7----------5---------5-----------|
E|-----------------------------------------------|----------------------------------------------|
    wait,               it’s alright                we can       hang     a        while


[Chorus]
  Am                       Asus4           G   G7  Am
Come what may, we will always be the same, you and I
  Am                       Asus4      G   G7 Am
Shall remain in and out in every way, so alike


  Am             Asus4
Into the mirror, now I see clear
  G                           G7   Am  
We must’ve come from the same design
  Am                      Asus4
Captured my eyes, turned, shout till my ears burn
  G                            G7     Am
tell me if hearts are the same as mine


  Am                       Asus4           G    G7   Am
Come what may, we will always be the same, you and I
  Am                       Asus4      G      G7 Am
Shall remain in and out in every way, so alike

            
            
Suggest correction
Creating personal tab
Creating personal tab
You can edit any tab online and save it as your Personal.

You can edit, replace or remove any tab part or add personal notes – all changes will be seen only by you.

Personal tabs can be accessed anytime from any device, even offline.
Learn more »
Give kudos to tab author, rate the tab!
1 2 3 4 5
comments
print report bad tab
guest
You may want to rate the tab now too:
select rating
Wanna post a correction for this tab? Suggest correction