Oops, an error
Loading. Please wait.

Wanted Man tab

1,716 views 1 this week
2 commentsread comments
1 2 3 4 5
2 more votes to show rating
add to favorites
×
Save as Personal and add changes to this tab that will be seen only by you. Learn more ›
×
You can save this tab as Personal to edit and correct it or add notes. All changes will be seen only by you. Learn more »
launch autoscroll
font size
0
reset
how to read this tab
guitar tuner
edit
Autoscroll
slow
fast
+/-
esc
set tempo
stop
Author
Difficulty
-----------------------------------------------------------------------------
                        WANTED MAN - The Last Internationale
Tabbed by:gaab_17
Email:gaab_00@hotmail.com

I tabbed the song based on the youtube videos which are mainly acoustic.
This tab includes mainly the Acoustic guitar's part, which has the main riff.
I've also included the solo, played with the electrict guitar

email me if you have corrections ;)

Standard Tuning

intro
     (Downstrokes only)
E|-----------------------------------------------------------------|
B|-----------------------------------------------------------------|
G|-----------------------------------------------------------------|
D|-----------------------------------------------------------------|
A|-----------------------------------------------------------------|
E|-3-3-3-3---------------------------------------------------------|
   . . . .

riff1
     (Downstrokes only)
E|-----------------------------------------------------------------|
B|-----------------------------------------------------------------|
G|-----------------------------------------------------------------|
D|-----------------------------------------------------------------|
A|-----------------------------------------------------------------|
E|-3-3-3-3-------------6-6-6-6--------1-1-1-1----------3-3-3-3-----|
   . . . .  (4times)   . . . .  (x4)  . . . . (x4)     . . . .  (x4)

riff2
     (Downstrokes only)
E|-----------------------------------------------------------------|
B|-----------------------------------------------------------------|
G|-----------------------------------------------------------------|
D|-----------------------------------------------------------------|
A|-5-5-5-5-------------8-8-8-8--------3-3-3-3----------5-5-5-5-----|
E|-3-3-3-3-------------6-6-6-6--------1-1-1-1----------3-3-3-3-----|
   . . . .  (4times)   . . . .  (x4)  . . . . (x4)     . . . .  (x4)

riff3
     (Downstrokes only) To be played twice
E|-----------------------------------------------------------------|
B|-----------------------------------------------------------------|
G|-----------------------------------------------------------------|
D|-5-5-5-5-------------8-8-8-8--------3-3-3-3----------5-5-5-5-----|
A|-5-5-5-5-------------8-8-8-8--------3-3-3-3----------5-5-5-5-----|
E|-3-3-3-3-------------6-6-6-6--------1-1-1-1----------3-3-3-3-----|
            (4times)            (x4)          (x4)              (x4)

riff4
     (Downstrokes only) To be played three times
E|-3-3-3-3-------------6-6-6-6--------1-1-1-1----------3-3-3-3-----|
B|-3-3-3-3-------------6-6-6-6--------1-1-1-1----------3-3-3-3-----|
G|-3-3-3-3-------------6-6-6-6--------1-1-1-1----------3-3-3-3-----|
D|-5-5-5-5-------------8-8-8-8--------3-3-3-3----------5-5-5-5-----|
A|-5-5-5-5-------------8-8-8-8--------3-3-3-3----------5-5-5-5-----|
E|-3-3-3-3-------------6-6-6-6--------1-1-1-1----------3-3-3-3-----|
            (4times)            (x4)          (x4)              (x4)


Chorus
E|-3-3-3-3-------------6-6-6-6--------1-1-1-1----------3-3-3-3-----|
B|-3-3-3-3-------------6-6-6-6--------1-1-1-1----------3-3-3-3-----|
G|-3-3-3-3-------------6-6-6-6--------1-1-1-1----------3-3-3-3-----|
D|-5-5-5-5-------------8-8-8-8--------3-3-3-3----------5-5-5-5-----|
A|-5-5-5-5-------------8-8-8-8--------3-3-3-3----------5-5-5-5-----|
E|-3-3-3-3-------------6-6-6-6--------1-1-1-1----------3-3-3-3-----|
            (4times)            (x4)          (x4)              (x4)


E|-3-3-3-3-------------6-6-6-6--------10-10-10-10------3-3-3-3-----|
B|-3-3-3-3-------------6-6-6-6--------10-10-10-10------3-3-3-3-----|
G|-3-3-3-3-------------6-6-6-6--------10-10-10-10------3-3-3-3-----|
D|-5-5-5-5-------------8-8-8-8--------12-12-12-12------5-5-5-5-----|
A|-5-5-5-5-------------8-8-8-8--------12-12-12-12------5-5-5-5-----|
E|-3-3-3-3-------------6-6-6-6--------10-10-10-10------3-3-3-3-----|
            (4times)            (x4)              (x4)          (x4)


Solo
     Add Tremolo effect
E|-----------------------------------------------------------------------------------------|
B|-----------------------------------------------------------------------------------------|
G|-----------------------------------------------------------------------------------------|
D|-5-----5--3--5--8---5--5--3-----3--------------------------------------------------------|
A|-----------------------------------5--3--5---5--3--3\p1p1\3\5---3--3--1--1---------------|
E|--------------------------------------------------------------------------------3--1--3--|
   ~                  ~                    ~                                            ~

E|-----------------------------------------------------------------------------------------|
B|-------------------------------------------6-------8--6----------------------------------|
G|-----------------------3--5--7----7--5--7-----7----------7--5----7--5-----5--7-----------|
D|-5--5--5--3--5--8---5--------------------------------------------------8-----------------|
A|-----------------------------------------------------------------------------------------|
E|-----------------------------------------------------------------------------------------|


E|-----------------------------------------------------------------------------------------|
B|-----------------------------------------------------------------------------------------|
G|----5--5--3--3---------------------------------------------------------------------------|
D|----------------5--3--5------------------------------------------------------------------|
A|-----------------------------------------------------------------------------------------|
E|-----------------------------------------------------------------------------------------|
                        ~

Riff 2


Riff 3 (To be played once)


Chorus


Solo (same solo again)


Outro
     (Downstrokes only)
E|-----------------------------------------------------------------|
B|-----------------------------------------------------------------|
G|-----------------------------------------------------------------|
D|-----------------------------------------------------------------|
A|-5-5-5-5-------------8-8-8-8--------3-3-3-3----------3-----------|
E|-3-3-3-3-------------6-6-6-6--------1-1-1-1----------1-----------|
   . . . .  (4times)   . . . .  (x4)  . . . . (x4)     .



| /  slide up
| \  slide down
| h  hammer-on
| p  pull-off
| ~  vibrato
| *  harmonic
| .  Palm Muting
| PH pinch harmonic
===============================================================================

            
            
Suggest correction
Creating personal tab
Creating personal tab
You can edit any tab online and save it as your Personal.

You can edit, replace or remove any tab part or add personal notes – all changes will be seen only by you.

Personal tabs can be accessed anytime from any device, even offline.
Learn more »
Give kudos to tab author, rate the tab!
1 2 3 4 5
comments
print report bad tab
2 comments total.
0 reply
Banthar 418 Oct 16, 2014 10:15 AM

Nice Tab, but I disagree with you on the second and third chord.
Teh first and the last is in minor, but the other two are in major!
So it`s:
E|-3-3-3-3-------------6-6-6-6--------1-1-1-1----------3-3-3-3-----|
B|-3-3-3-3-------------6-6-6-6--------1-1-1-1----------3-3-3-3-----|
G|-3-3-3-3-------------7-7-7-7--------2-2-2-2----------3-3-3-3-----|
D|-5-5-5-5-------------8-8-8-8--------3-3-3-3----------5-5-5-5-----|
A|-5-5-5-5-------------8-8-8-8--------3-3-3-3----------5-5-5-5-----|
E|-3-3-3-3-------------6-6-6-6--------1-1-1-1----------3-3-3-3-----|

0 reply
gaab_17 31 Mar 18, 2016 05:18 AM

You are right, it seems she plays the minor form. However, while playing the song alone - one guitar and earphones - it didn't sound right to me - so i left it major

guest
You may want to rate the tab now too:
select rating
Wanna post a correction for this tab? Suggest correction