Oops, an error
Loading. Please wait.

Never Get A Job tab

280 views 6 this week
no commentswrite comment
1 2 3 4 5
3 more votes to show rating
add to favorites
×
Save as Personal and add changes to this tab that will be seen only by you. Learn more ›
×
You can save this tab as Personal to edit and correct it or add notes. All changes will be seen only by you. Learn more »
launch autoscroll
font size
0
reset
how to read this tab
guitar tuner
edit
Autoscroll
slow
fast
+/-
esc
set tempo
stop
Author
~ -> Sustain
. -> Palm Mute

Intro

e|--------------------------------------------------------------------|
B|--------------------------------------------------------------------|
G|-9-9-9-9-9-9-9----7-7-7-7-7-7-7----7-7-7-7-7-7-7----6-6-6-6-6-6-6-6-|
D|-9-9-9-9-9-9-9-0--7-7-7-7-7-7-7-0--7-7-7-7-7-7-7-0--6-6-6-6-6-6-6-6-| 2x
A|-7-7-7-7-7-7-7-0--5-5-5-5-5-5-5-0--5-5-5-5-5-5-5-0--4-4-4-4-4-4-4-4-|
E|--------------------------------------------------------------------|
   . . . . . . . .  . . . . . . . .  . . . . . . . .  . . . . . . . .


e|----------------------------------|
B|----------------------------------|
G|---------4-4~----7-7~--4-4~-------|
D|-2-2~----4-4~----7-7~--4-4~--2-2~-|
A|-2-2~----2-2~----5-5~--2-2~--2-2~-|
E|-0-0~------------------------0-0~-|


e|---------------------------------------------|
B|---------------------------------------------|
G|---------4-4~----7-7~--4-4~------------------|
D|-2-2~----4-4~----7-7~--4-4~--2-2-2-2-2-2-2-2-|
A|-2-2~----2-2~----5-5~--2-2~--2-2-2-2-2-2-2-2-|
E|-0-0~------------------------0-0-0-0-0-0-0-0-|
                               . . . . . . . . 


Verse


e|---------------------------------------------------------------------|
B|---------------------------------------------------------------------|
G|------------------4-4-4-4-4-4-4-4--7-7-7-7--4-4-4-4------------------|
D|-2-2-2-2-2-2-2-2--4-4-4-4-4-4-4-4--7-7-7-7--4-4-4-4--2-2-2-2-2-2-2-2-| 4x
A|-2-2-2-2-2-2-2-2--2-2-2-2-2-2-2-2--5-5-5-5--2-2-2-2--2-2-2-2-2-2-2-2-|
E|-0-0-0-0-0-0-0-0-------------------------------------0-0-0-0-0-0-0-0-|
   . . . . . . . .  . . . . . . . .  . . . .  . . . .  . . . . . . . .  


Bridge


e|------------------------------------------------------------------|
B|------------------------------------------------------------------|
G|-4---4-4-4-4-4----4---4-4-4-4-4----2---2-2-2-2-2----2---2-2-2-2-2-|
D|-4---4-4-4-4-4----4---4-4-4-4-4----2---2-2-2-2-2----2---2-2-2-2-2-|
A|-2---2-2-2-2-2----2---2-2-2-2-2----0---0-0-0-0-0----0---0-0-0-0-0-|
E|------------------------------------------------------------------|


e|------------------------------------------------------------------|
B|------------------------------------------------------------------|
G|-4---4-4-4-4-4----4---4-4-4-4-4----2---2-2-2-2-2----2-2-2-2-2-2-2-|
D|-4---4-4-4-4-4----4---4-4-4-4-4----2---2-2-2-2-2----2-2-2-2-2-2-2-|
A|-2---2-2-2-2-2----2---2-2-2-2-2----0---0-0-0-0-0----0-0-0-0-0-0-0-|
E|------------------------------------------------------------------|
                                                      . . . . . .


Chorus


e|--------------------------------------------------------------------|
B|--------------------------------------------------------------------|
G|------------------4---4-4-4-4-4----2---2-2-2-2-2----4---4-4-4-------|
D|-2---2-2-2-2-2----4---4-4-4-4-4----2---2-2-2-2-2----4---4-4-4-2-4\2-|
A|-2---2-2-2-2-2----2---2-2-2-2-2----0---0-0-0-0-0----2---2-2-2-2-4\2-|
E|-0---0-0-0-0-0------------------------------------------------0-2\0-|


e|-------------------------------------------------------------------|
B|-------------------------------------------------------------------|
G|----------------4---4-4-4-4-4----2-2-2-2-2-2-2-2-2-2-2-2-2-2-2-2---|
D|---2-2-2-2-2----4---4-4-4-4-4----2-2-2-2-2-2-2-2-2-2-2-2-2-2-2-2---|
A|---2-2-2-2-2----2---2-2-2-2-2----0-0-0-0-0-0-0-0-0-0-0-0-0-0-0-0---|
E|---0-0-0-0-0-------------------------------------------------------|
                                     . . . . . . . . . . . . . . . .

e|---------------------------------------------|
B|---------------------------------------------|
G|---------4-4~----7-7~--4-4~------------------|
D|-2-2~----4-4~----7-7~--4-4~--2-2-2-2-2-2-2-2-|
A|-2-2~----2-2~----5-5~--2-2~--2-2-2-2-2-2-2-2-|
E|-0-0~------------------------0-0-0-0-0-0-0-0-|
                               . . . . . . . . 

Verse


e|---------------------------------------------------------------------|
B|---------------------------------------------------------------------|
G|------------------4-4-4-4-4-4-4-4--7-7-7-7--4-4-4-4------------------|
D|-2-2-2-2-2-2-2-2--4-4-4-4-4-4-4-4--7-7-7-7--4-4-4-4--2-2-2-2-2-2-2-2-| 2x
A|-2-2-2-2-2-2-2-2--2-2-2-2-2-2-2-2--5-5-5-5--2-2-2-2--2-2-2-2-2-2-2-2-|
E|-0-0-0-0-0-0-0-0-------------------------------------0-0-0-0-0-0-0-0-|
   . . . . . . . .  . . . . . . . .  . . . .  . . . .  . . . . . . . .  


Bridge


e|------------------------------------------------------------------|
B|------------------------------------------------------------------|
G|-4---4-4-4-4-4----4---4-4-4-4-4----2---2-2-2-2-2----2---2-2-2-2-2-|
D|-4---4-4-4-4-4----4---4-4-4-4-4----2---2-2-2-2-2----2---2-2-2-2-2-|
A|-2---2-2-2-2-2----2---2-2-2-2-2----0---0-0-0-0-0----0---0-0-0-0-0-|
E|------------------------------------------------------------------|


e|------------------------------------------------------------------|
B|------------------------------------------------------------------|
G|-4---4-4-4-4-4----4---4-4-4-4-4----2---2-2-2-2-2----2-2-2-2-2-2-2-|
D|-4---4-4-4-4-4----4---4-4-4-4-4----2---2-2-2-2-2----2-2-2-2-2-2-2-|
A|-2---2-2-2-2-2----2---2-2-2-2-2----0---0-0-0-0-0----0-0-0-0-0-0-0-|
E|------------------------------------------------------------------|
                                                      . . . . . .

Chorus


e|--------------------------------------------------------------------|
B|--------------------------------------------------------------------|
G|------------------4---4-4-4-4-4----2---2-2-2-2-2----4---4-4-4-------|
D|-2---2-2-2-2-2----4---4-4-4-4-4----2---2-2-2-2-2----4---4-4-4-2-4\2-|
A|-2---2-2-2-2-2----2---2-2-2-2-2----0---0-0-0-0-0----2---2-2-2-2-4\2-|
E|-0---0-0-0-0-0------------------------------------------------0-2\0-|


e|-------------------------------------------------------------------|
B|-------------------------------------------------------------------|
G|----------------4---4-4-4-4-4----2-2-2-2-2-2-2-2-2-2-2-2-2-2-2-2---|
D|---2-2-2-2-2----4---4-4-4-4-4----2-2-2-2-2-2-2-2-2-2-2-2-2-2-2-2---|
A|---2-2-2-2-2----2---2-2-2-2-2----0-0-0-0-0-0-0-0-0-0-0-0-0-0-0-0---|
E|---0-0-0-0-0-------------------------------------------------------|
                                   . . . . . . . . . . . . . . . .


e|----------------|
B|----------------|
G|----------------|
D|-2-2~-----------|
A|-2-2~-----------|
E|-0-0~-----------|


Intro


e|--------------------------------------------------------------------|
B|--------------------------------------------------------------------|
G|-9-9-9-9-9-9-9----7-7-7-7-7-7-7----7-7-7-7-7-7-7----6-6-6-6-6-6-6-6-|
D|-9-9-9-9-9-9-9-0--7-7-7-7-7-7-7-0--7-7-7-7-7-7-7-0--6-6-6-6-6-6-6-6-| 3x
A|-7-7-7-7-7-7-7-0--5-5-5-5-5-5-5-0--5-5-5-5-5-5-5-0--4-4-4-4-4-4-4-4-|
E|--------------------------------------------------------------------|
   . . . . . . . .  . . . . . . . .  . . . . . . . .  . . . . . . . .

e|--------------------------------------------------------------------|
B|--------------------------------------------------------------------|
G|-9-9-9-9-9-9-9----7-7-7-7-7-7-7----7-7-7-7-7-7-7----6-6~------------|
D|-9-9-9-9-9-9-9-0--7-7-7-7-7-7-7-0--7-7-7-7-7-7-7-0--6-6~------------|
A|-7-7-7-7-7-7-7-0--5-5-5-5-5-5-5-0--5-5-5-5-5-5-5-0--4-4~------------|
E|--------------------------------------------------------------------|
   . . . . . . . .  . . . . . . . .  . . . . . . . .

Chorus (2x)


e|--------------------------------------------------------------------|
B|--------------------------------------------------------------------|
G|------------------4---4-4-4-4-4----2---2-2-2-2-2----4---4-4-4-------|
D|-2---2-2-2-2-2----4---4-4-4-4-4----2---2-2-2-2-2----4---4-4-4-2-4\2-|
A|-2---2-2-2-2-2----2---2-2-2-2-2----0---0-0-0-0-0----2---2-2-2-2-4\2-|
E|-0---0-0-0-0-0------------------------------------------------0-2\0-|


e|--------------------------------------------------------------------|
B|--------------------------------------------------------------------|
G|-----------------4---4-4-4-4-4----2-2-2-2-2-2-2-2-2-2-2-2-2-2-2-2---|
D|----2-2-2-2-2----4---4-4-4-4-4----2-2-2-2-2-2-2-2-2-2-2-2-2-2-2-2---|
A|----2-2-2-2-2----2---2-2-2-2-2----0-0-0-0-0-0-0-0-0-0-0-0-0-0-0-0---|
E|----0-0-0-0-0-------------------------------------------------------|
                                    . . . . . . . . . . . . . . . .

Verse


e|---------------------------------------------------------------------|
B|---------------------------------------------------------------------|
G|------------------4-4-4-4-4-4-4-4--7-7-7-7--4-4-4-4------------------|
D|-2-2-2-2-2-2-2-2--4-4-4-4-4-4-4-4--7-7-7-7--4-4-4-4--2-2-2-2-2-2-2-2-| 8x
A|-2-2-2-2-2-2-2-2--2-2-2-2-2-2-2-2--5-5-5-5--2-2-2-2--2-2-2-2-2-2-2-2-|
E|-0-0-0-0-0-0-0-0-------------------------------------0-0-0-0-0-0-0-0-|
   . . . . . . . .  . . . . . . . .  . . . .  . . . .  . . . . . . . .  

            
            
Suggest correction
Creating personal tab
Creating personal tab
You can edit any tab online and save it as your Personal.

You can edit, replace or remove any tab part or add personal notes – all changes will be seen only by you.

Personal tabs can be accessed anytime from any device, even offline.
Learn more »
Give kudos to tab author, rate the tab!
1 2 3 4 5
comments
print report bad tab
guest
You may want to rate the tab now too:
select rating
Wanna post a correction for this tab? Suggest correction