Oops, an error
Loading. Please wait.

Aviation bass

version 1
version 1

Whole song

Interactive

4,729 views 21 this week
no commentswrite comment
1 2 3 4 5
x 7
add to favorites
×
Save as Personal and add changes to this tab that will be seen only by you. Learn more ›
×
You can save this tab as Personal to edit and correct it or add notes. All changes will be seen only by you. Learn more »
launch autoscroll
font size
0
reset
guitar tuner
edit
Autoscroll
slow
fast
+/-
esc
set tempo
stop
-------------------------------------------------------------------------------
                    "Aviation" by The Last Shadow Puppets
-------------------------------------------------------------------------------
Tabbed by: Vítor Cunha
E-mail: vitor.cunha.bq@hotmail.com

Tuning: Standard

Before anything, some notes in the verses, chorus, outro etc are played faster than others, so pay attention
to the bassline in the original track so you can keep on with it. Well, that's it, enjoy!

Intro (x1)
            x1
G|-----------|
D|-10-8-7-8\-|
A|-----------|
E|-----------|

Verse (x2)                                             
                      x2                     x2                     x2
G|---------------------|----------------------|----------------------| 
D|-5----5-5--5-5--8-7--|-7----7-7--7-7-10-9---|----------------------| 
A|----5--------------8-|----7--------------10-|-3----3-3--3-3--5-3-1-|
E|---------------------|----------------------|----3-----------------|
  
                      x1                       x1
G|---------------------|------------------------|
D|------5-5--5-5--8-7--|-5----5-5--5------------|
A|----5--------------8-|----5---------5--3--1p0-|
E|-3-------------------|------------------------|


Chorus (x1)                      
                       x2                     x1                   x1                     x2                 
G|----------------------|----------------------|--------------------|----------------------|
D|-5*----5-5--5-5--8-7--|----------------------|--------------------|----------------------| *2nd time
A|----5---------------8-|-6----6-6--6-6-6/8-65-|-6----6-6--8-6-5-6\-|-3----3-3--3-3--5-3-1-|
E|-3--------------------|----6-----------------|----6---------------|----3-----------------|

                      x1                       x1
G|---------------------|------------------------|
D|------5-5--5-5--8-7--|-5----5-5--5------------|
A|----5--------------8-|----5---------5--3--1p0-|
E|-3-------------------|------------------------|


Verse (x1)                                             
                       x2                     x2                     x2
G|----------------------|----------------------|----------------------| 
D|-5*----5-5--5-5--8-7--|-7----7-7--7-7-10-9---|----------------------| *2nd time
A|----5---------------8-|----7--------------10-|-3----3-3--3-3--5-3-1-|
E|-3--------------------|----------------------|----3-----------------|

                      x1                       x1
G|---------------------|------------------------|
D|------5-5--5-5--8-7--|-5----5-5--5------------|
A|----5--------------8-|----5---------5--3--1p0-|
E|-3-------------------|------------------------|

Chorus (x1)                    
                      x2                     x1                   x1                     x2                 
G|---------------------|----------------------|--------------------|----------------------|
D|-5*---5-5--5-5--8-7--|----------------------|--------------------|----------------------| *2nd time
A|----5--------------8-|-6----6-6--6-6-6/8-65-|-6----6-6--8-6-5-6\-|-3----3-3--3-3--5-3-1-|
E|-3-------------------|----6-----------------|----6---------------|----3-----------------|

                      x1                       x1
G|---------------------|------------------------|
D|------5-5--5-5--8-7--|-5----5-5--5------------|
A|----5--------------8-|----5---------5--3--1p0-|
E|-3-------------------|------------------------|

Chorus 2 (Elementary Hallelujahs) (x1)
                      x2                     x1                   x1                     x2                 
G|---------------------|----------------------|--------------------|----------------------|
D|-5*---5-5--5-5--8-7--|----------------------|--------------------|----------------------| *2nd time
A|----5--------------8-|-6----6-6--6-6-6/8-65-|-6----6-6--8-6-5-6\-|-3----3-3--3-3--5-3-1-|
E|-3-------------------|----6-----------------|----6---------------|----3-----------------|

                      x1                       x1
G|---------------------|-----------------------|
D|------5-5--5-5--8-7--|-5----5-5--------------|
A|----5--------------8-|----5------8--8--8--8\-|
E|-3-------------------|-----------------------|

Break (x1)
                       x1                     x1                    x1                     x1
G|----------------------|----------------------|---------------------|----------------------|
D|----------------------|--------5--3----------|------5-5--5-5--8-7--|----------------------|
A|-6----6-6--6-6------1-|-5----5-------5--3--1-|----5--------------8-|-3----3-3--3-3-3/5-31-|
E|----6----------0h1h3--|----5-----------------|-3-------------------|----3-----------------|

                       x1                     x1                     x1                     x1
G|----------------------|----------------------|----------------------|----------------------|
D|----------------------|----------------------|----------------------|----------------------|
A|-6----6-6--6-6-6/8-65-|-1----1-1--1-1------1-|-5----5-5--5-5------1-|-5----5-5--5-5--5---5-|
E|----6-----------------|----1----------0h1h3--|----5----------0h1h3--|----5-------------5---|

Outro (x1)
                       x1                     x1                    x1                   x1
G|----------------------|----------------------|---------------------|--------------------|
D|----------------------|--------5--3----------|------5-5--5-5--8-7--|--------------------|
A|-6----6-6--6-6------1-|-5----5-------5--3--1-|---5---------------8-|-3----3-3--3-3/5-31-|
E|----6----------0h1h3--|----5-----------------|-3-------------------|----3---------------|
  
                       x1                     x1                     x1                     x1                
G|----------------------|----------------------|----------------------|----------------------|
D|----------------------|----------------------|----------------------|----------------------|
A|-6----6-6--6-6-6/8-65-|-1----1-1--1-1------1-|-3----3-3--3-3------1-|-5----5-5--5-5------1-|
E|----6-----------------|----1----------0h1h3--|----3----------0h1h3--|----5----------0h1h3--|
    
                       x1                  x1                    x1                    x2
G|----------------------|-------------------|---------------------|---------------------|
D|----------------------|-------------------|------5-5--5-5--8-7--|-5----5-5--5-5--8-7--|
A|-5----5-5--5-5--5---5-|-5----5-5--5-3-----|----5--------------8-|----5--------------8-|
E|----5-------------5---|----5----------6-5-|-3-------------------|---------------------|
                         x1  x1
G|------------------------|---|
D|-5----5-5--5------------|---|
A|----5---------5--3--1p0-|---|
E|------------------------|-3-|

| /  slide up
| \  slide down
| h  hammer-on
| p  pull-off
===============================================================================

            
            
Suggest correction
Creating personal tab
Creating personal tab
You can edit any tab online and save it as your Personal.

You can edit, replace or remove any tab part or add personal notes – all changes will be seen only by you.

Personal tabs can be accessed anytime from any device, even offline.
Learn more »
comments
print report bad tab
guest
You may want to rate the tab now too:
select rating
Wanna post a correction for this tab? Suggest correction