Oops, an error
Loading. Please wait.

Aviation tab

version 2
version 2

Whole song

Interactive

4,291 views 12 this week
no commentswrite comment
1 2 3 4 5
x 5
add to favorites
×
Save as Personal and add changes to this tab that will be seen only by you. Learn more ›
×
You can save this tab as Personal to edit and correct it or add notes. All changes will be seen only by you. Learn more »
launch autoscroll
font size
0
reset
how to read this tab
guitar tuner
edit
Autoscroll
slow
fast
+/-
esc
set tempo
stop
Author
Fairly certain Alex a string tuned up or down to G (according to a video I've just watched) 
But here it is in E standard
First note in each progression changes during the chorus and ending, as it will follow the chords 
(timings are not literal)

Let the first note of each bar ring if you can 
e|---------------------------------------------------------------------------|
B|------3---------------3--1-------------3-------------3--1------------------|
G|---------0--h2--h3----------3--2----------0--h2--h3--------3--2------------|
D|---------------------------------------------------------------------------|
A|---------------------------------------------------------------------------|
E|--3---------------------------------3--------------------------------------|

e|---------------------------------------------------------------------------|
B|----3-------------3--1-----------------3-------------3--1------------------|
G|-------0--h2--h3--------3--2--------------0--h2--h3--------3--2------------|
D|---------------------------------------------------------------------------|
A|--0---------------------------------0--------------------------------------|
E|---------------------------------------------------------------------------|

e|---------------------------------------------------------------------------|
B|-----3-------------3--1----------------3-------------3--1------------------|
G|--------0--h2--h3--------3--2-------------0--h2--h3---------3--2-----------|
D|---------------------------------------------------------------------------|
A|--3---------------------------------3--------------------------------------|
E|---------------------------------------------------------------------------|

e|---------------------------------------------------------------------------|
B|-----3-------------3--1----------------3-------------3--1------------------|
G|--------0--h2--h3--------3--2-------------0--h2--h3---------3--2-----------|
D|---------------------------------------------------------------------------|
A|---------------------------------------------------------------------------|
E|--3---------------------------------3--------------------------------------|




| x   Dead note
| g   Grace note
| (n) Ghost note
| h   Hammer-on
| p   Pull-off
| r   Release
| >   Accented note
| t   Tapping
| b   Bend
| br  Bend release
| pb  Pre-bend
| pbr Pre-bend release
| /   Slide up
| \   Slide down
| ~   Vibrato
| s   Slap
| P   Pop
| PM  Palm mute
| TR  Trill
| N   Tremolo

************************************

            
            
Suggest correction
Creating personal tab
Creating personal tab
You can edit any tab online and save it as your Personal.

You can edit, replace or remove any tab part or add personal notes – all changes will be seen only by you.

Personal tabs can be accessed anytime from any device, even offline.
Learn more »
comments
print report bad tab
guest
You may want to rate the tab now too:
select rating
Wanna post a correction for this tab? Suggest correction