Oops, an error
Loading. Please wait.

Is This What You Wanted Tab

version 1
version 1

Whole song

  • Miles guitar part from their studio version (https... Show more
358 views 24 this week
no commentswrite comment
1 2 3 4 5
x 6
add to favorites
launch autoscroll
font size
0
reset
how to read this tab
guitar tuner
Autoscroll
slow
fast
+/-
esc
set tempo
stop
Help us to improve Ultimate-Guitar.com Take our survey!
×
Author
Difficulty
-------------------------------------------------------------------------------
              "Is This What You Wanted" by The Last Shadow Puppets
-------------------------------------------------------------------------------
Tabbed by: Vítor Cunha
E-mail: vitor.cunha.bq@hotmail.com

Tuning: Standard

OBS: the time markers indicates when the note is played, not when the part starts, so it's just a tip

[Intro]

N.C.

[Verse] (The X marks heavy strokes)
  0:17                     0:30  0:36            X       X                     0:56 X       X           1:05
   D                  D     D     G     D    G   G   G   G    D                 G   G   G   G    D       A
e|---|-------------|-----|-----|-----|-----|---------------|------------------|---------------|--------|---|
B|-7-|-------------|--7--|--7--|--3--|--7--|-3---3---3---3-|----7----------7N-|-3---3---3---3-|---7----|-2-|
G|-7-|-11--6--2--4-|--7--|--7--|--4--|--7--|-4---4---4---4-|------7-----------|-4---4---4---4-|-----7--|-2-|
D|-7-|-------------|--7--|--7--|--5--|--7--|-5---5---5---5-|-/7----------7----|-5---5---5---5-|-/7-----|-2-|
A|---|-------------|--5--|--5--|--5--|--5--|-5---5---5---5-|------------------|-5---5---5---5-|--------|-0-|
E|---|-------------|-----|-----|-----|-----|---------------|------------------|---------------|--------|---|

[Chorus] (All heavy strokes)
   Bm  C   Bm  A   D
e|-2-------2---------|
B|-3---5---3---2---7-|
G|-4---5---4---2---7-|
D|-4---5---4---2---7-| x2
A|-2---3---2---0---5-| Listen carefully, the timing of A and D are different in the 2nd time and are not
E|-------------------| heavy strokes

[Verse]
  1:50             1:55        2:05 X                 X       X                        2:24 X       X
                    D     D     G   G     D       G   G   G   G     D                   G   G   G   G
e|---------------|-----|-----|---------|-------|-----------------|-------------------|-----------------|
B|---------------|--7--|--7--|--3---3--|----7--|--3---3---3---3--|----7-----------7N-|--3---3---3---3--|
G|-(11)--6--2--4-|--7--|--7--|--4---4--|-------|--4---4---4---4--|------7------------|--4---4---4---4--|
D|---------------|--7--|--7--|--5---5--|-/7----|--5---5---5---5--|-/7----------7-----|--5---5---5---5--|
A|---------------|--5--|--5--|--5---5--|-------|--5---5---5---5--|-------------------|--5---5---5---5--|
E|---------------|-----|-----|---------|-------|-----------------|-------------------|-----------------|
           2:34
    D       A
e|--------|----|
B|----7---|-2N-|
G|------7-|-2N-|
D|-/7-----|-2N-|
A|--------|-0N-|
E|--------|----|

[Chorus] (All heavy strokes)
   Bm  C   Bm  A   D
e|-2-------2---------|
B|-3---5---3---2---7-|
G|-4---5---4---2---7-|
D|-4---5---4---2---7-| x2
A|-2---3---2---0---5-| This time, only the D has a different timing/is a normal stroke
E|-------------------|


[Verse]
  3:21  X                3:34 X                3:41  3:44                      3:53 X       X            4:03
    G   G     D     D     G   G     D           G     G     D                   G   G   G   G     D       A
e|---------|-----|-----|---------|-----------|-----------|-------------------|-----------------|--------|---|
B|--3---3--|--7--|--7--|--3---3--|----7------|--3-----3--|----7-----------7N-|--3---3---3---3--|----7---|-2-|
G|--4---4--|--7--|--7--|--4---4--|------7----|--4-----4--|------7------------|--4---4---4---4--|------7-|-2-|
D|--5---5--|--7--|--7--|--5---5--|-/7-----7--|--5-----5--|-/7----------7-----|--5---5---5---5--|-/7-----|-2-|
A|--5---5--|--5--|--5--|--5---5--|-----------|--5-----5--|-------------------|--5---5---5---5--|--------|-0-|
E|---------|-----|-----|---------|-----------|-----------|-------------------|-----------------|--------|---|


[Chorus] (All heavy strokes)
   Bm  C   Bm  A   D
e|-2-------2---------|
B|-3---5---3---2---7-|
G|-4---5---4---2---7-|
D|-4---5---4---2---7-| x3
A|-2---3---2---0---5-|
E|-------------------|

   Bm  C   Bm  A   
e|-2-------2----------| 
B|-3---5---3---2------|
G|-4---5---4---2---7N-|
D|-4---5---4---2------|
A|-2---3---2---0------| Different tempos as well/normal stroke for the A as the "D" is just the single note
E|--------------------|

[Outro]
 Miles uses the bigsby on every bend part
e|-7-------8-------7--------------------------------------|
B|-10b12---11b13---10b12---------------7---7--------------|
G|----------------------------6N---------7----7-----------|
D|-------------------------/7-------/7-----------7-9--7-9-|
A|--------------------------------------------------------|
E|--------------------------------------------------------|

And he pretty much repeats it 'til the end of the song
Hope it was helpful :)

************************************

|(n) Ghost note
| b   Bend
| \   Slide down
| N   Tremolo

************************************
Suggest correction
comments
print report bad tab
guest
You may want to rate the tab now too:
select rating
Wanna post a correction for this tab? Suggest correction