Oops, an error
Loading. Please wait.

Les Cactus Tab

238 views 120 this week
no commentswrite comment
1 2 3 4 5
x 3
add to favorites
launch autoscroll
font size
0
reset
how to read this tab
guitar tuner
Autoscroll
slow
fast
+/-
esc
set tempo
stop
Help us to improve Ultimate-Guitar.com Take our survey!
×
Author
Difficulty
intermediate
Here’s miles part for the Les Cactus cover. Standard tuning, nothing 
special just a catchy tune and a good cover.

[Intro]

Chords used in song: B7, E7(#9), A7
Picks out individual notes 

e|---x-----| |-----------------------|
B|---9-----| |-------9------------9--|
G|---7-----| |------------------7----|
D|---6-----| |---6-------6----6------|
A|---7-----| |-7-------7---7---------|
E|---x-----| |-----------------------|

[Verse 1]

2 bars of d--udu-d each     single bars of d--udu-d    5 quick down strokes

e|-5---|---x---|              e|-7-----5-----x-|          e|-x-|
B|-5---|---8---|              B|-7-----5-----8-|          B|-8-|
G|-6---|---7---|              G|-8-----6-----7-|          G|-7-| restarts with the intro and
D|-5---|---6---|              D|-7-----5-----6-|          D|-6-| then repeats the pattern
A|-7---|---7---|              A|-9-----7-----7-|          A|-7-| 3 times for first verse.
E|-5---|---x---|              E|-7-----5-----x-|          E|-x-|


[solo 1]  Played with a very fast tempo

  [d-u]  [d-u]   [d-d]  [u-udu]    [d-u]   [d-u]   [d-d]   [u-d]  [d-u]
e|-7---/---5---/---2---/---5----|----7---/---5---/---2---/---5---/---2---|
B|-9---/---7---/---4---/---7----|----9---/---7---/---4---/---7---/---4---|
G|-8---/---6---/---3---/---6----|----8---/---6---/---3---/---6---/---3---|
D|-7---/---5---/---2---/---5----|----7---/---5---/---2---/---5---/---2---|
A|-7---/---5---/---2---/---5----|----7---/---5---/---2---/---5---/---2---|
E|-7---/---5---/---2---/---2----|----7---/---5---/---2---/---5---/---2---|
    
[d-u]   [d-u]   [d-d]   [u-d]  [d-u]         [d-dud]
e|-7---/---5---/---2---/---5---/---2---|      e|-7-|
B|-9---/---7---/---4---/---7---/---4---|      B|-9-|
G|-8---/---6---/---3---/---6---/---3---| x 2  G|-8-| x 8
D|-7---/---5---/---2---/---5---/---2---|      D|-7-|
A|-7---/---5---/---2---/---5---/---2---|      A|-7-|
E|-7---/---5---/---2---/---5---/---2---|      E|-7-|

e|-7---/---5---/---2---/---5---/---2---|      e|-7-|       e|-10-|      e|-12-|
B|-9---/---7---/---4---/---7---/---4---|      B|-9-|       B|-12-|      B|-14-|
G|-8---/---6---/---3---/---6---/---3---| x 2  G|-8-| x 5   G|-11-| x 1  G|-13-|x 1
D|-7---/---5---/---2---/---5---/---2---|      D|-7-|       D|-10-|      D|-12-|
A|-7---/---5---/---2---/---5---/---2---|      A|-7-|       A|-10-|      A|-12-|
E|-7---/---5---/---2---/---5---/---2---|      E|-7-|       E|-10-|      E|-12-|

                                   Quick slides whilst [d-dud]
e|-7---/---5---/---2---/---5---|      e|-4/7-|
B|-9---/---7---/---4---/---7---|      B|-6/9-|
G|-8---/---6---/---3---/---6---| x1   G|-5/8-| x 2     
D|-7---/---5---/---2---/---5---|      D|-4/7-|
A|-7---/---5---/---2---/---5---|      A|-4/7-|
E|-7---/---5---/---2---/---2---|      E|-4/7-|

Solo end on 1 bar and transitions back to verse rhythm

e|-7-|
B|-9-|
G|-8-|     
D|-7-|
A|-7-|
E|-7-|

[Verse 2]

2 bars d--udu-d
e|-x-|
B|-8-|          
G|-7-|          
D|-6-|          
A|-7-|          
E|-x-|  
        
2 bars of d--udu-d each     single bars of d--udu-d    5 quick down strokes on
e|-5---x-----|                e|-7-----5-----x-|            e|-x-|
B|-5---8-----|                B|-7-----5-----8-|            B|-8-|
G|-6---7-----|                G|-8-----6-----7-|            G|-7-|      
D|-5---6-----|                D|-7-----5-----6-|            D|-6-| x 2
A|-7---7-----|                A|-9-----7-----7-|            A|-7-|      
E|-5---x-----|                E|-7-----5-----x-|            E|-x-|

[solo 2]

similar to fist solo but picked notes tried to tab and didn't come out right. Any
suggestions welcome.

[~ - vibrato]
[/ - slides]
[\ - slides]
Suggest correction
Give kudos to tab author, rate the tab!
1 2 3 4 5
comments
print report bad tab
guest
You may want to rate the tab now too:
select rating
Wanna post a correction for this tab? Suggest correction