Oops, an error
Loading. Please wait.

Miracle Aligner bass

5,848 views 42 this week
2 commentsread comments
1 2 3 4 5
x 7
add to favorites
×
Save as Personal and add changes to this tab that will be seen only by you. Learn more ›
×
You can save this tab as Personal to edit and correct it or add notes. All changes will be seen only by you. Learn more »
launch autoscroll
font size
0
reset
guitar tuner
edit
Autoscroll
slow
fast
+/-
esc
set tempo
stop
Author
Difficulty
The Last Shadow Puppets - Miracle Aligner (Everything You've Come to Expect)

Tab by Rodrigo Castaño


[Chorus 1]

G||-----------------|-----------------|-----------------|-----------------|
D||-----------------|-----------------|-----------------|-----4-6-7p6-4/--|
A||-5-----5-5---5---|-5-4-------------|-9-------7---9---|---4-------------|
E||-----------------|-----7-5-7p5-7---|-------9---9-----|-----------------|
    i   i   i   i     i   i   i   i     i   i   i   i     i   i   i   i

G||-----------------|-----------------|-----------------|-----------------|
D||/9-----9---7---9-|---9---12--9---9-|-7-------7-------|-7---------------|
A||---------9---9---|-----9---9-------|-------7---7-9-7-|---7-9-----4-----|
E||-----------------|-----------------|-----------------|-------5-----7-5-|
    i   i   i   i     i   i   i   i     i   i   i   i     i   i   i   i

G||-----------------|-----------------|-----------------|-----------------|
D||-----------------|-----------------|-----------------|-----4-6-7p6-4/--|
A||-5-----5-5---5---|-5-4-------------|-9-------7---9---|---4-------------|
E||-----------------|-----7-5-7p5-7---|-------9---9-----|-----------------|
    i   i   i   i     i   i   i   i     i   i   i   i     i   i   i   i

G||-----------------|-----------------|-----------------|-----------------||
D||/9-----9---7---9-|---9---12--9---9-|-----------------|---------------9-||
A||---------9---9---|-----9---9-------|-9-------9-------|-9---7-9---9-----||
E||-----------------|-----------------|-------9---------|---9-------------||
    i   i   i   i     i   i   i   i     i   i   i   i     i   i   i   i

[Verse 1]

G||-----------------|-----------------|-----------------|-----------------|
D||-----------9-----|---------------9-|-6---------------|-----------------|
A||-7-----7-7-------|-7-----7-7-9-10--|-------6---------|---------------4-|
E||-----------------|-----------------|---------4-------|-4-----4-4-5-7---|
    i   i   i   i     i   i   i   i     i   i   i   i     i   i   i   i

G||-----------------|-----------------|-----------------|-----------------|
D||-------7---------|-----------------|---------6---6---|-----------------|
A||-5-------5-----5-|-5-4-----5---7---|-4-----4---------|-4-------4---5---|
E||-----------------|-----7-5---------|-----------------|-------4---------|
    i   i   i   i     i   i   i   i     i   i   i   i     i   i   i   i

G||-----------------|-----------------|-----------------|-----------------|
D||-----------9-----|-------------6-9-|-6---------------|-----------------|
A||-7-----7-7-------|-7-----7-7-9-----|-------6---------|---------------4-|
E||-----------------|-----------------|---------4-------|-4-----4-4-5-7---|
    i   i   i   i     i   i   i   i     i   i   i   i     i   i   i   i

G||-----------------|-----------------|-----------------|---------6-4-----||
D||-----------------|-----------------|---------6---6---|-------------7-6-||
A||-5-------5-------|-5-4-----5---7---|-4-----4---------|-4-----4---------||
E||-------5---------|-----7-5---------|-----------------|-----------------||
    i   i   i   i     i   i   i   i     i   i   i   i     i   i   i   i

[Pre-Chorus 1]

G||-----------------|-----------------|-----------------|-----------------|
D||-----------------|---------/9---7--|-6----6---4------|-7-----7-7-----7-|
A||-9----9-------7\-|-2----2----------|--------------7--|-----------------|
E||----------7------|-----------------|-----------------|-----------------|
    i   i   i   i     i   i   i   i     i   i   i   i     i   i   i   i

G||-----------------|-----------------|-----------------|-----------------||
D||-7----7---7---7--|-----------------|-----------------|-----------------||
A||-----------------|-7-----7-7---9\--|-5-----5-5-------|-5-----5-5-------||
E||-----------------|-----------------|-----------------|-----------------||
    i   i   i   i     i   i   i   i     i   i   i   i     i   i   i   i

[Chorus 2]

G||-----------------|-----------------|-----------------|-----------------|
D||-----------------|-----------------|-----------------|-----4-6-7p6-4/--|
A||-5-----5-5---5---|-5-4-------------|-9-------7---9---|---4-------------|
E||-----------------|-----7-5-7p5-7---|-------9---9-----|-----------------|
    i   i   i   i     i   i   i   i     i   i   i   i     i   i   i   i

G||-----------------|-----------------|-----------------|-----------------|
D||/9-----9---7---9-|---9-----7-9---9-|-7-------7-------|-7---------------|
A||---------9---9---|-----7-9---------|-------7---7-9-7-|---7-9-----4-----|
E||-----------------|-----------------|-----------------|-------5-----7-5-|
    i   i   i   i     i   i   i   i     i   i   i   i     i   i   i   i

G||-----------------|-----------------|-----------------|-----------------|
D||-----------------|-----------------|-----------------|-----4-6-7p6-4/--|
A||-5-----5-5---5---|-5-4-------------|-9-------7---9---|---4-------------|
E||-----------------|-----7-5-7p5-7---|-------9---9-----|-----------------|
    i   i   i   i     i   i   i   i     i   i   i   i     i   i   i   i

G||-----------------|-----------------|-----------------|--------------------||
D||/9-----9---7---9-|---9---12--9-----|-----------------|--------------------||(sounds better if you bend #F 
A||---------9---9---|-----9---9-------|-9-------9-------|-9---9-11h12p11-9---|| to A and back to #F but it's 
E||-----------------|-----------------|-------9---------|---9--------------9-|| easier to write down this way)
    i   i   i   i     i   i   i   i     i   i   i   i     i   i    i     i  

[Interlude]

G||-----------------|-----------------|-----------------|--------------------|
D||-9-------9-------|-9---7-9---9---9-|-----------------|--------------------| 
A||-------9---------|---9-----9-------|-9---9-----------|-9---9-11h12p11-9---|
E||-----------------|-----------------|---9-------------|---9--------------9-|
    i   i   i   i     i   i   i   i     i   i   i   i     i   i    i     i  

G||-----------------|-----------------|-----------------|-----------------||
D||-9-------9-------|-9---7-9---9---9-|-----------------|-----------------|| 
A||-------9---------|---9-----9-------|-9---------------|-----------------||
E||-----------------|-----------------|-----------------|-----------------||
    i   i   i   i     i   i   i   i     i   i   i   i     i   i   i   i

[Verse 2]

G||-----------------|-----------------|-----------------|-----------------|
D||-----------9-----|-------------6-9-|-6---------------|-----------------|
A||-7-----7-7-------|-7-----7-7-9-----|-------6---------|---------------4-|
E||-----------------|-----------------|---------4-------|-4-----4-4-5-7---|
    i   i   i   i     i   i   i   i     i   i   i   i     i   i   i   i

G||-----------------|-----------------|-----------------|---------6-4-----||
D||-------7---------|-----------------|---------6---6---|-------------7-6-||
A||-5-------5-------|-5-4-----5-/-7---|-4-----4---------|-4-----4---------||
E||-----------------|-----7-5---------|-----------------|-----------------||
    i   i   i   i     i   i   i   i     i   i   i   i     i   i   i   i

[Pre-Chorus 2]

G||-----------------|-----------------|-----------------|-----------------|
D||-----------------|---------/9---7--|-6----6---4------|-7-----7-7-----7-|
A||-9----9-------7\-|-2----2----------|--------------7--|-----------------|
E||----------7------|-----------------|-----------------|-----------------|
    i   i   i   i     i   i   i   i     i   i   i   i     i   i   i   i

G||-----------------|-----------------|-----------------|-----------------||
D||-7-----7-7-------|-----------------|-----------------|-----------------||
A||-----------------|-7-----7-7---9\--|-5-----5-5-------|-5-----5-5-------||
E||-----------------|-----------------|-----------------|-----------------||
    i   i   i   i     i   i   i   i     i   i   i   i     i   i   i   i

[Chorus 3]

G||-----------------|-----------------|-----------------|-----------------|
D||-----------------|-----------------|-----------------|-----4-6-7p6-4/--|
A||-5-----5-5---5---|-5-4-------------|-9-------7---9---|---4-------------|
E||-----------------|-----7-5-7p5-7---|-------9---9-----|-----------------|
    i   i   i   i     i   i   i   i     i   i   i   i     i   i   i   i

G||-----------------|-----------------|-----------------|-----------------|
D||/9-----9---7---9-|---9---11--9-----|-7-------7-------|-7---------------|
A||---------9---9---|-----9---9-----9-|-------7---7-9-7-|---7-9-----4-----|
E||-----------------|-----------------|-----------------|-------5-----7-5-|
    i   i   i   i     i   i   i   i     i   i   i   i     i   i   i   i

G||-----------------|-----------------|-----------------|-----------------|
D||-----------------|-----------------|-----------------|-----4-6-7p6-4/--|
A||-5-----5-5---5---|-5-4-------------|-9-------7---9---|---4-------------|
E||-----------------|-----7-5-7p5-7---|-------9---9-----|-----------------|
    i   i   i   i     i   i   i   i     i   i   i   i     i   i   i   i

G||-----------------|-----------------|-----------------|--------------------||
D||/9-----9---7---9-|---9---11--9---9-|-----------------|--------------------||
A||---------9---9---|-----9---9-------|-9-------9-------|-9---9-11h12p11-9---||  
E||-----------------|-----------------|-------9---------|---9--------------9-|| 
    i   i   i   i     i   i   i   i     i   i   i   i     i   i    i     i

[Outro]

G||-----------------|-----------------|-----------------|--------------------||
D||-9-------9-------|-9---7-9---9---9-|-----------------|--------------------|| (x4)
A||-------9---------|---9-----9-------|-9---9-----------|-9---9-11h12p11-9---||
E||-----------------|-----------------|---9-------------|---9--------------9-||
    i   i   i   i     i   i   i   i     i   i   i   i     i   i    i     i

G||-----------------||
D||-----------------|| 
A||-----------------||
E||-7---------------||
    i   i   i   i

***********************************
| /  slide up
| \  slide down
| h  hammer-on
| p  pull-off
***********************************

            
            
Suggest correction
Creating personal tab
Creating personal tab
You can edit any tab online and save it as your Personal.

You can edit, replace or remove any tab part or add personal notes – all changes will be seen only by you.

Personal tabs can be accessed anytime from any device, even offline.
Learn more »
comments
print report bad tab
2 comments total.
0 reply
windjunky 119 May 20, 2016 10:39 AM

Awesome, cheers bro.

guest
You may want to rate the tab now too:
select rating
Wanna post a correction for this tab? Suggest correction