Oops, an error
Loading. Please wait.

Miracle Aligner solo tab

version 2
version 2

Solo

  • Inclusion of version Alex plays in the VOX studio ... Show more
  • Few other solo tabs have mistakes, while my doesn'... Show more
  • Standard tuning for normal guitar.

Whole song

8,185 views 42 this week
2 commentsread comments
1 2 3 4 5
x 24
add to favorites
×
Save as Personal and add changes to this tab that will be seen only by you. Learn more ›
×
You can save this tab as Personal to edit and correct it or add notes. All changes will be seen only by you. Learn more »
launch autoscroll
font size
0
reset
how to read this tab
guitar tuner
edit
Autoscroll
slow
fast
+/-
esc
set tempo
stop
[Solo]

E|------------------------------------------------------|
B|------------------------------------------------------|
G|------------------------------------------------------|
D|------------------------------------------------------|
A|-------------------0--2/4--5--2-----0-----------------|
E|--2--0--2--4b--2-----------------2-----2--0--2--0--2--|

E|------------------------------------------------------|
B|------------------------------------------------------|
G|------------------------------------------------------|
D|------------------------------------------------------|
A|-------------------0--2/4--5--2-----0-----------------|
E|--2--0--2--4b--2-----------------2-----2--0--2--------|

********
b - bend
/ - slide
********

            
            
Suggest correction
Creating personal tab
Creating personal tab
You can edit any tab online and save it as your Personal.

You can edit, replace or remove any tab part or add personal notes – all changes will be seen only by you.

Personal tabs can be accessed anytime from any device, even offline.
Learn more »
comments
print report bad tab
2 comments total.
+2 reply
SpideryMan 10 Apr 05, 2016 02:19 PM

i think the 4-5-4 in that first bit is actually a bend, and the 0-4-5-2 should be 0-2/4-5-2, with the slide very quick, but this is definitely the most accurate tab of the solo otherwise

guest
You may want to rate the tab now too:
select rating
Wanna post a correction for this tab? Suggest correction