Oops, an error
Loading. Please wait.

Miracle Aligner solo tab

version 5
version 5

Solo

  • Inclusion of version Alex plays in the VOX studio ... Show more
  • Few other solo tabs have mistakes, while my doesn'... Show more
  • Standard tuning for normal guitar.

Whole song

184 views 6 this week
no commentswrite comment
1 2 3 4 5
3 more votes to show rating
add to favorites
×
Save as Personal and add changes to this tab that will be seen only by you. Learn more ›
×
You can save this tab as Personal to edit and correct it or add notes. All changes will be seen only by you. Learn more »
launch autoscroll
font size
0
reset
how to read this tab
guitar tuner
edit
Autoscroll
slow
fast
+/-
esc
set tempo
stop
About this tab version
Inclusion of version Alex plays in the VOX studio version. Updated tab that includes chorus riffs and variations throughout the song. Was this info helpful? Yes No
This solo is 100% correct and has been adapted from the VOX studio session, which can be
found on apple. I've also included the variation Alex plays during this performance. In 
case anyone's wondering the sound sounds best on a guitar that's scale length is 24.75 
and higher. Thick baritone strings also help to bring out the basey notes. Updated tab derived 
from miracle aligner live https://www.youtube.com/watch?v=Ek-ay4GzvJ8. Watch the video its good
for understanding the timings.

(credits for the verse and pre-chorus tab go to rodrigo castano's tab whitch I adapted from.)
(https://tabs.ultimate-guitar.com/t/the_last_shadow_puppets/miracle_aligner_btab.htm)

 palm muted

B |-----|--------|--------------|----------|-----------|-----------------|
F#|-----|--------|--------------|----------|-----------|-----------------|
D |-----|--------|--------------|-4--4-2-4-|-4--6-7--4-|-9--9-7-9--9-9---|
A |-----|-5--5-5-|-5-4-2-0-2-2--|-----4----|--4--------|-----9-----------|
E |-----|--------|--------------|----------|-----------|-----------------|
B |-3-5-|--------|--------------|----------|-----------|-----------------|

B |-------------|---|----|-----------------|
F#|-------------|---|----|-----------------|
D |-11-9----9---|-7-|----|-----------------|
A |------12---9-|---|--7-|--7----7--4-2-0--|
E |-------------|---|-7--|---7-9-----------|
B |-------------|---|----|-----------------|


B |--------|--------------|----------|-----------|-----------------|
F#|--------|--------------|----------|-----------|-----------------|
D |--------|--------------|-4--4-2-4-|-4--6-7--4-|-9--9-7-9--9-9---|
A |-5--5-5-|-5-4-2-0-2-2--|-----4----|--4--------|-----9-----------|
E |--------|--------------|----------|-----------|-----------------|
B |--------|--------------|----------|-----------|-----------------|

B |-------------|----|----|--------------3/5---|
F#|-------------|----|----|--------------3/5---|
D |-11-9----9---|----|----|--------------4/6---|
A |------12---9-|-12-|--9-|--7----7-7----5/7---|
E |-------------|----|-9--|---7-9--------5/7---|
B |-------------|----|----|--------------3/5---|

[verse 1] unlike the live version the baritione guitar plays through the verse on the studio track. 

B |----------------|----------------|--------------|---------------|
F#|----------------|----------------|--------------|------------7--|
D |----------9-----|--------------9-|-6------6-----|-6---6-6-7-9---|
A |-7----7-7-------|-7----7-7-9-10--|------6-------|---------------|
E |----------------|----------------|--------------|---------------|
B |----------------|----------------|--------------|---------------|

B |----------------|----------------|--------------|---------------|
F#|----------------|----------------|--------------|---------------|
D |------7---------|----------------|------6---6---|---------------|
A |-5------5-----5-|-5-4-----5--7---|-4---4--------|-4-----4---5---|
E |----------------|-----7-5--------|--------------|------4--------|
B |----------------|----------------|--------------|---------------|

B |----------------|----------------|--------------|---------------|
F#|----------------|----------------|--------------|---------------|
D |-----------9----|------------6-9-|-6------------|---------------|
A |-7-----7-7------|-7----7-7-9-----|------6-------|-------------4-|
E |----------------|----------------|--------4-----|-4---4-4-5-7---|
B |----------------|----------------|--------------|---------------|

B |----------------|----------------|--------------|---------------|
F#|----------------|----------------|--------------|-------6-4-----|
D |----------------|----------------|-------6---6--|-----------7-6-|
A |-5-------5------|-5-4----5---7---|-4---4--------|-4---4---------|
E |-------5--------|----7-5---------|--------------|---------------|
B |----------------|----------------|--------------|---------------|

[pre chorus 1]

B |----------------|----------------|--------------|---------------|
F#|----------------|----------------|--------------|---------------|
D |----------------|--------/9---7--|-6---6---4----|-7----7-7----7-|
A |-9----9------7\-|-2---2----------|------------7-|---------------|
E |----------7-----|----------------|--------------|---------------|
B |----------------|----------------|--------------|---------------|

B |----------------|----------------|--------------|---------------|
F#|----------------|----------------|--------------|---------------|
D |-7---7---7---7--|----------------|--------------|---------------|
A |----------------|-7----7-7---9\--|-5-----5-5----|-5-----5-5-----|
E |----------------|----------------|--------------|---------------|
B |----------------|----------------|--------------|---------------|

 chorus 3 the same, includes the outro variation.

B |-----|--------|--------------|----------|-----------|-----------------|
F#|-----|--------|--------------|----------|-----------|-----------------|
D |-----|--------|--------------|-4--4-2-4-|-4--6-7--4-|-9--9-7-9--9-9---|
A |-----|-5--5-5-|-5-4-2-0-2-2--|-----4----|--4--------|-----9-----------|
E |-----|--------|--------------|----------|-----------|-----------------|
B |-3-5-|--------|--------------|----------|-----------|-----------------|

B |-------------|----|----|-------------------------------------------|
F#|-------------|----|----|-------------------------------------------|
D |-11-9----9---|----|----|-------------------------------------------|
A |------12---9-|-12-|--9-|---------------0h2/4-5-2-------------------|
E |-------------|----|-9--|-2-2/3h4b-4-2----------------5-----------2-|
B |-------------|----|----|--2-----------------------/7---7-5-7---2---|

[verse 2]
B |--------------|----------------|---------------|----------------|
F#|--------------|----------------|---------------|----------------|
E |--------------|----------------|---------------|----------------|
D |-----------9--|------------6-9-|-6-------------|----------------|
A |-7-----7-7----|-7----7-7-9-----|-------6-------|--------------4-|
B |--------------|----------------|---------4-----|-4----4-4-5-7---|
   
B |--------------|----------------|---------------|----------------|
F#|--------------|----------------|---------------|--------6-4-----|
D |-------7------|----------------|--------6---6--|------------7-6-|
A |-5-------5----|-5-4-----5-/-7--|-4----4--------|-4----4---------|
E |--------------|-----7-5--------|---------------|----------------|
B |--------------|----------------|---------------|----------------|

[pre chorus 2]

B |--------------|----------------|---------------|----------------|
F#|--------------|----------------|---------------|----------------|
D |--------------|--------/9---7--|-6----6---4----|-7-----7-7----7-|
A |-9---9-----7\-|-2----2---------|-------------7-|----------------|
E |-------7------|----------------|---------------|----------------|
B |--------------|----------------|---------------|----------------|

B |--------------|----------------|---------------|----------------|
F#|--------------|----------------|---------------|----------------|
D |-7-----7-7----|----------------|---------------|----------------|
A |--------------|-7----7-7---9\--|-5-----5-5-----|-5-----5-5------|
E |--------------|----------------|---------------|----------------|
B |--------------|----------------|---------------|----------------|

End with chours 3 and outro

[variation riff from VOX]

B |---------------------------------------------------------------------------|
F#|---------------------------------------------------------------------------|
D |---------------------------------------------------------------------------|
A |---------------------------------------------------------------------------|
E |-2-2/3h4b-2-5/9---10-7---5-------------------------------------------------|
B |--2---------------------7--7-5-7-------------------------------------------|


[outro variation]

B |---------------------------------------------------------------------------|
F#|---------------------------------------------------------------------------|
D |---------------------------------------------------------------------------|
A |---------------------------------------------------------------------------|
E |-2-2--4-2-0-2--------------------------------------------------------------|
B |--2----------2-0-----------------------------------------------------------|

************************************
| h   Hammer-on
| p   Pull-off
| b   Bend
| /   Slide up
| \   Slide down
| ~   Vibrato
************************************

            
            
Suggest correction
Creating personal tab
Creating personal tab
You can edit any tab online and save it as your Personal.

You can edit, replace or remove any tab part or add personal notes – all changes will be seen only by you.

Personal tabs can be accessed anytime from any device, even offline.
Learn more »
Give kudos to tab author, rate the tab!
1 2 3 4 5
comments
print report bad tab
guest
You may want to rate the tab now too:
select rating
Wanna post a correction for this tab? Suggest correction