Oops, an error
Loading. Please wait.

Miracle Aligner Tab

version 6
version 6

Solo

Whole song

88 views 3 this week
no commentswrite comment
1 2 3 4 5
3 more votes to show rating
add to favorites
launch autoscroll
font size
0
reset
how to read this tab
guitar tuner
Autoscroll
slow
fast
+/-
esc
set tempo
stop
Help us to improve Ultimate-Guitar.com Take our survey!
×
Author
Difficulty
Tuning
intermediate
B E A D F# B
About this tab version
Inclusion of version Alex plays in the VOX studio version. Updated tab that includes chorus riffs and variations throughout the song. Was this info helpful? Yes No
This solo is 100% correct and has been adapted from the VOX studio session, which can be
found on apple. I've also included the variation Alex plays during this performance. In 
case anyone's wondering the sound sounds best on a guitar that's scale length is 24.75 
and higher. Thick baritone strings also help to bring out the basey notes. Updated tab derived 
from miracle aligner live https://www.youtube.com/watch?v=Ek-ay4GzvJ8. Watch the video its good
for understanding the timings.

[chorus 1] palm muted

B |-----|--------|--------------|----------|-----------|-----------------|
F#|-----|--------|--------------|----------|-----------|-----------------|
D |-----|--------|--------------|-4--4-2-4-|-4--6-7--4-|-9--9-7-9--9-9---|
A |-----|-5--5-5-|-5-4-2-0-2-2--|-----4----|--4--------|-----9-----------|
E |-----|--------|--------------|----------|-----------|-----------------|
B |-3-5-|--------|--------------|----------|-----------|-----------------|

B |-------------|---|----|-----------------|
F#|-------------|---|----|-----------------|
D |-11-9----9---|-7-|----|-----------------|
A |------12---9-|---|--7-|--7----7--4-2-0--|
E |-------------|---|-7--|---7-9-----------|
B |-------------|---|----|-----------------|


B |--------|--------------|----------|-----------|-----------------|
F#|--------|--------------|----------|-----------|-----------------|
D |--------|--------------|-4--4-2-4-|-4--6-7--4-|-9--9-7-9--9-9---|
A |-5--5-5-|-5-4-2-0-2-2--|-----4----|--4--------|-----9-----------|
E |--------|--------------|----------|-----------|-----------------|
B |--------|--------------|----------|-----------|-----------------|

B |-------------|----|----|--------------3/5---|
F#|-------------|----|----|--------------3/5---|
D |-11-9----9---|----|----|--------------4/6---|
A |------12---9-|-12-|--9-|--7----7-7----5/7---|
E |-------------|----|-9--|---7-9--------5/7---|
B |-------------|----|----|--------------3/5---|

[chorus 2] chorus 3 the same, includes the outro variation.

B |-----|--------|--------------|----------|-----------|-----------------|
F#|-----|--------|--------------|----------|-----------|-----------------|
D |-----|--------|--------------|-4--4-2-4-|-4--6-7--4-|-9--9-7-9--9-9---|
A |-----|-5--5-5-|-5-4-2-0-2-2--|-----4----|--4--------|-----9-----------|
E |-----|--------|--------------|----------|-----------|-----------------|
B |-3-5-|--------|--------------|----------|-----------|-----------------|

B |-------------|----|----|-------------------------------------------|
F#|-------------|----|----|-------------------------------------------|
D |-11-9----9---|----|----|-------------------------------------------|
A |------12---9-|-12-|--9-|---------------0h2/4-5-2-------------------|
E |-------------|----|-9--|-2-2/3h4b-4-2----------------5-----------2-|
B |-------------|----|----|--2-----------------------/7---7-5-7---2---|

[variation riff from VOX]

B |---------------------------------------------------------------------------|
F#|---------------------------------------------------------------------------|
D |---------------------------------------------------------------------------|
A |---------------------------------------------------------------------------|
E |-2-2/3h4b-2-5/9---10-7---5-------------------------------------------------|
B |--2---------------------7--7-5-7-------------------------------------------|


[outro variation]

B |---------------------------------------------------------------------------|
F#|---------------------------------------------------------------------------|
D |---------------------------------------------------------------------------|
A |---------------------------------------------------------------------------|
E |-2-2--4-2-0-2--------------------------------------------------------------|
B |--2----------2-0-----------------------------------------------------------|


************************************

| h   Hammer-on
| p   Pull-off
| b   Bend
| /   Slide up
| \   Slide down
| ~   Vibrato

************************************
Suggest correction
Give kudos to tab author, rate the tab!
1 2 3 4 5
comments
print report bad tab
guest
You may want to rate the tab now too:
select rating
Wanna post a correction for this tab? Suggest correction