Oops, an error
Loading. Please wait.

Miracle Aligner Tab

version 7
version 7

Solo

Whole song

46 views 1 this week
no commentswrite comment
1 2 3 4 5
2 more votes to show rating
add to favorites
launch autoscroll
font size
0
reset
how to read this tab
guitar tuner
Autoscroll
slow
fast
+/-
esc
set tempo
stop
Help us to improve Ultimate-Guitar.com Take our survey!
×
Author
Difficulty
intermediate
About this tab version
Few other solo tabs have mistakes, while my doesn't have any of them. Also, my tab is for standard tuning. Was this info helpful? Yes No
[Solo]

e|---------------------------------------------------------------------------|
B|---------------------------------------------------------------------------|
G|---------------------------------------------------------------------------|
D|-------6b---7-9/11-12-9---7------------------------------------------------|
A|-9-7-9----9-------------9---9-7-9~-----9~----------------------------------|
E|-------------------------------------9-------------------------------------|

e|---------------------------------------------------------------------------|
B|---------------------------------------------------------------------------|
G|---------------------------------------------------------------------------|
D|-------6b---7-9/11-12-9---7------------------------------------------------|
A|-9-7-9----9-------------9---9-7-9~-----------------------------------------|
E|---------------------------------------------------------------------------|

e|---------------------------------------------------------------------------|
B|---------------------------------------------------------------------------|
G|---------------------------------------------------------------------------|
D|-------6b---7-9/11-12-9---7------------------------------------------------|
A|-9-7-9----9-------------9---9-7-9~-----9~----------------------------------|
E|------------------------------------9--------------------------------------|

e|---------------------------------------------------------------------------|
B|---------------------------------------------------------------------------|
G|---------------------------------------------------------------------------|
D|-------6b---7-9/11-12-9---7------------------------------------------------|
A|-9-7-9----9-------------9---9-7-9~-----------------------------------------|
E|---------------------------------------------------------------------------|

e|---------------------------------------------------------------------------|
B|---------------------------------------------------------------------------|
G|---------------------------------------------------------------------------|
D|-------6-7-6---------------------------------------------------------------|
A|-9-7-9-------9-------------------------------------------------------------|
E|---------------9-7~--------------------------------------------------------|

************************************

| x   Dead note
| g   Grace note
| (n) Ghost note
| h   Hammer-on
| p   Pull-off
| r   Release
| >   Accented note
| t   Tapping
| b   Bend
| br  Bend release
| pb  Pre-bend
| pbr Pre-bend release
| /   Slide up
| \   Slide down
| ~   Vibrato
| s   Slap
| P   Pop
| PM  Palm mute
| TR  Trill
| N   Tremolo

************************************
Suggest correction
Give kudos to tab author, rate the tab!
1 2 3 4 5
comments
print report bad tab
guest
You may want to rate the tab now too:
select rating
Wanna post a correction for this tab? Suggest correction