Oops, an error
Loading. Please wait.

Miracle Aligner tab

version 2
version 2

Whole song

2,383 views 33 this week
no commentswrite comment
1 2 3 4 5
x 3
add to favorites
×
Save as Personal and add changes to this tab that will be seen only by you. Learn more ›
×
You can save this tab as Personal to edit and correct it or add notes. All changes will be seen only by you. Learn more »
launch autoscroll
font size
0
reset
how to read this tab
guitar tuner
edit
Autoscroll
slow
fast
+/-
esc
set tempo
stop
Author
The Last Shadow Puppets
--- Miracle Aligner ---

Tab by DelTom
Enjoy


-- CHORUS --


Tell him what you want and baby he can     find you     anything you need, Tell him what you’re     

-2--2--2--2--2--2--2--2--2--2--2--2--2-    -2--2--2-    -2--2--2--2--2--2--2--2--2--2--2--2--2- 
-3--3--3--3--3--3--3--3--3--3--3--3--3-    -3--3--3-    -2--2--2--2--2--2--2--2--2--2--2--2--2-  
-2--2--2--2--2--2--2--2--2--2--2--2--2-    -4--4--4-    -2--2--2--2--2--2--2--2--2--2--2--2--2-  
-x--x--x--x--x--x--x--x--x--x--x--x--x-    -4--4--4-    -4--4--4--4--4--4--4--4--4--4--4--4--4-   
-x--x--x--x--x--x--x--x--x--x--x--x--x-    -2--2--2-    -4--4--4--4--4--4--4--4--4--4--4--4--4-   
-x--x--x--x--x--x--x--x--x--x--x--x--x-    -2--2--2-    -2--2--2--2--2--2--2--2--2--2--2--2--2-   


needing, hey,      ooooooooooooooooh          Come on 

-0--0-    -2--2--2--2-     -0--0--0--0--0-   -0--0--0-
-2--2-    -3--3--3--3-     -2--2--2--2--2-   -0--0--0-
-2--2-    -4--4--4--4-     -2--2--2--2--2-   -1--1--1-
-2--2-    -4--4--4--4-     -2--2--2--2--2-   -2--2--2-
-x--x-    -2--2--2--2-     -x--x--x--x--x-   -2--2--2-
-x--x-    -2--2--2--2-     -x--x--x--x--x-   -0--0--0-



Miracle aligner, go and get ‘em        tiger,      Get down on your knees, get down on your     knees 

-2--2--2--2--2--2--2--2--2--2--2-    -2--2--2-    -2--2--2--2--2--2--2--2--2--2--2--2--2--2-    -0--0-  
-3--3--3--3--3--3--3--3--3--3--3-    -3--3--3-    -2--2--2--2--2--2--2--2--2--2--2--2--2--2-    -2--2-   
-2--2--2--2--2--2--2--2--2--2--2-    -4--4--4-    -2--2--2--2--2--2--2--2--2--2--2--2--2--2-    -2--2-  
-x--x--x--x--x--x--x--x--x--x--x-    -4--4--4-    -4--4--4--4--4--4--4--4--4--4--4--4--4--4-    -2--2-   
-x--x--x--x--x--x--x--x--x--x--x-    -2--2--2-    -4--4--4--4--4--4--4--4--4--4--4--4--4--4-    -x--x-   
-x--x--x--x--x--x--x--x--x--x--x-    -2--2--2-    -2--2--2--2--2--2--2--2--2--2--2--2--2--2-    -x--x-    


again oooooooooooooooooh

-2--2--2--2-     -2--2--2--2--2-
-3--3--3--3-     -2--2--2--2--2-
-4--4--4--4-     -2--2--2--2--2-
-4--4--4--4-     -4--4--4--4--4-
-2--2--2--2-     -4--4--4--4--4-
-2--2--2--2-     -2--2--2--2--2-



-- VERSE --


Fifty feet tall and revived up too high All of our exchanges are by candle light, I just realised

--0--                             --4--                             --2--                   --4--
--0--                             --4--                             --3--                   --5--
--1--                             --4--                             --2--                   --6--
--2--                             --6--                             --x--                   --6--
--2--                             --6--                             --x--                   --4--
--0--                             --4--                             --x--                   --4--

He’ll walk through the walls and creep up behind Make sense of the maze that you were stuck outside, 

--0--                                      --4--                             --2--                   
--0--                                      --4--                             --3--                   
--1--                                      --4--                             --2--                   
--2--                                      --6--                             --x--                   
--2--                                      --6--                             --x--                   
--0--                                      --4--                             --x--                   


cover your eyes

          --4--
          --5--
          --6--
          --6--
          --4--
          --4--



-- PRE CHORUS --


Often the humble kind but he can’t deny He was born to blow your mind Or something along those lines, tonight

          --2--             --2--              --4--            --5--     --5--                --0--   --2--
          --2--             --4--              --4--            --5--     --5--                --0--   --3--
          --2--             --4--              --5--            --6--     --5--                --1--   --2--
          --4--             --4--              --6--            --7--     --7--                --2--   --x--
          --4--             --2--              --6--            --7--     --7--                --2--   --x--
          --2--             --2--              --4--            --5--     --5--                --0--   --x--



-- CHORUS --


Tell him what you want and baby he can     find you     anything you need, Tell him what you’re     

-2--2--2--2--2--2--2--2--2--2--2--2--2-    -2--2--2-    -2--2--2--2--2--2--2--2--2--2--2--2--2- 
-3--3--3--3--3--3--3--3--3--3--3--3--3-    -3--3--3-    -2--2--2--2--2--2--2--2--2--2--2--2--2-  
-2--2--2--2--2--2--2--2--2--2--2--2--2-    -4--4--4-    -2--2--2--2--2--2--2--2--2--2--2--2--2-  
-x--x--x--x--x--x--x--x--x--x--x--x--x-    -4--4--4-    -4--4--4--4--4--4--4--4--4--4--4--4--4-   
-x--x--x--x--x--x--x--x--x--x--x--x--x-    -2--2--2-    -4--4--4--4--4--4--4--4--4--4--4--4--4-   
-x--x--x--x--x--x--x--x--x--x--x--x--x-    -2--2--2-    -2--2--2--2--2--2--2--2--2--2--2--2--2-   


needing, hey,      ooooooooooooooooh          Come on 

-0--0-    -2--2--2--2-     -0--0--0--0--0-   -0--0--0-
-2--2-    -3--3--3--3-     -2--2--2--2--2-   -0--0--0-
-2--2-    -4--4--4--4-     -2--2--2--2--2-   -1--1--1-
-2--2-    -4--4--4--4-     -2--2--2--2--2-   -2--2--2-
-x--x-    -2--2--2--2-     -x--x--x--x--x-   -2--2--2-
-x--x-    -2--2--2--2-     -x--x--x--x--x-   -0--0--0-



Miracle aligner, go and get ‘em        tiger,      Get down on your knees, get down on your     knees 

-2--2--2--2--2--2--2--2--2--2--2-    -2--2--2-    -2--2--2--2--2--2--2--2--2--2--2--2--2--2-    -0--0-  
-3--3--3--3--3--3--3--3--3--3--3-    -3--3--3-    -2--2--2--2--2--2--2--2--2--2--2--2--2--2-    -2--2-   
-2--2--2--2--2--2--2--2--2--2--2-    -4--4--4-    -2--2--2--2--2--2--2--2--2--2--2--2--2--2-    -2--2-  
-x--x--x--x--x--x--x--x--x--x--x-    -4--4--4-    -4--4--4--4--4--4--4--4--4--4--4--4--4--4-    -2--2-   
-x--x--x--x--x--x--x--x--x--x--x-    -2--2--2-    -4--4--4--4--4--4--4--4--4--4--4--4--4--4-    -x--x-   
-x--x--x--x--x--x--x--x--x--x--x-    -2--2--2-    -2--2--2--2--2--2--2--2--2--2--2--2--2--2-    -x--x-    


again oooooooooooooooooh

-2--2--2--2-     -2--2--2--2--2-
-3--3--3--3-     -2--2--2--2--2-
-4--4--4--4-     -2--2--2--2--2-
-4--4--4--4-     -4--4--4--4--4-
-2--2--2--2-     -4--4--4--4--4-
-2--2--2--2-     -2--2--2--2--2-



-- SOLO --


Guitar solo :

-------------------------------------------------------
-------------------------------------------------------
----------------------6---7--4-------------------------     
--4----4--6b7--4--7----------------4/7--4-----4-----4--
----4---------------------------------------7-----4----
-------------------------------------------------------

-------------------------------------------------------
-------------------------------------------------------
----------------------6---7--4-------------------------     
--4----4--6b7--4--7----------------4/7--4-----4--------
----4---------------------------------------7----------
-------------------------------------------------------

Guitar :

--2--               --2--                  --2--
--2--               --3--                  --2--
--2--               --4--                  --2--              x2
--4--               --4--                  --4--
--4--               --2--                  --4--
--2--               --2--                  --2--



-- VERSE --


So what’s the wish, he’ll make it come true Simple as a line out of a Doo Wop tune He’ll make the moves

--0--                                 --4--                      --2--                         --4--
--0--                                 --4--                      --3--                         --5--
--1--                                 --4--                      --2--                         --6--
--2--                                 --6--                      --x--                         --6--
--2--                                 --6--                      --x--                         --4--
--0--                                 --4--                      --x--                         --4--



-- PRE CHORUS --


Often the humble kind but he can’t deny He was born to blow your mind Or something along those lines, tonight

          --2--             --2--              --4--            --5--     --5--                --0--   --2--
          --2--             --4--              --4--            --5--     --5--                --0--   --3--
          --2--             --4--              --5--            --6--     --5--                --1--   --2--
          --4--             --4--              --6--            --7--     --7--                --2--   --x--
          --4--             --2--              --6--            --7--     --7--                --2--   --x--
          --2--             --2--              --4--            --5--     --5--                --0--   --x--



-- CHORUS --


Tell him what you want and baby he can     find you     anything you need, Tell him what you’re     

-2--2--2--2--2--2--2--2--2--2--2--2--2-    -2--2--2-    -2--2--2--2--2--2--2--2--2--2--2--2--2- 
-3--3--3--3--3--3--3--3--3--3--3--3--3-    -3--3--3-    -2--2--2--2--2--2--2--2--2--2--2--2--2-  
-2--2--2--2--2--2--2--2--2--2--2--2--2-    -4--4--4-    -2--2--2--2--2--2--2--2--2--2--2--2--2-  
-x--x--x--x--x--x--x--x--x--x--x--x--x-    -4--4--4-    -4--4--4--4--4--4--4--4--4--4--4--4--4-   
-x--x--x--x--x--x--x--x--x--x--x--x--x-    -2--2--2-    -4--4--4--4--4--4--4--4--4--4--4--4--4-   
-x--x--x--x--x--x--x--x--x--x--x--x--x-    -2--2--2-    -2--2--2--2--2--2--2--2--2--2--2--2--2-   


needing, hey,      ooooooooooooooooh          Come on 

-0--0-    -2--2--2--2-     -0--0--0--0--0-   -0--0--0-
-2--2-    -3--3--3--3-     -2--2--2--2--2-   -0--0--0-
-2--2-    -4--4--4--4-     -2--2--2--2--2-   -1--1--1-
-2--2-    -4--4--4--4-     -2--2--2--2--2-   -2--2--2-
-x--x-    -2--2--2--2-     -x--x--x--x--x-   -2--2--2-
-x--x-    -2--2--2--2-     -x--x--x--x--x-   -0--0--0-



Miracle aligner, go and get ‘em        tiger,      Get down on your knees, get down on your     knees 

-2--2--2--2--2--2--2--2--2--2--2-    -2--2--2-    -2--2--2--2--2--2--2--2--2--2--2--2--2--2-    -0--0-  
-3--3--3--3--3--3--3--3--3--3--3-    -3--3--3-    -2--2--2--2--2--2--2--2--2--2--2--2--2--2-    -2--2-   
-2--2--2--2--2--2--2--2--2--2--2-    -4--4--4-    -2--2--2--2--2--2--2--2--2--2--2--2--2--2-    -2--2-  
-x--x--x--x--x--x--x--x--x--x--x-    -4--4--4-    -4--4--4--4--4--4--4--4--4--4--4--4--4--4-    -2--2-   
-x--x--x--x--x--x--x--x--x--x--x-    -2--2--2-    -4--4--4--4--4--4--4--4--4--4--4--4--4--4-    -x--x-   
-x--x--x--x--x--x--x--x--x--x--x-    -2--2--2-    -2--2--2--2--2--2--2--2--2--2--2--2--2--2-    -x--x-    


again oooooooooooooooooh

-2--2--2--2-     -2--2--2--2--2-
-3--3--3--3-     -2--2--2--2--2-
-4--4--4--4-     -2--2--2--2--2-
-4--4--4--4-     -4--4--4--4--4-
-2--2--2--2-     -4--4--4--4--4-
-2--2--2--2-     -2--2--2--2--2-


-- SOLO --

Guitar solo :

-------------------------------------------------------
-------------------------------------------------------
----------------------6---7--4-------------------------     
--4----4--6b7--4--7----------------4/7--4-----4-----4--
----4---------------------------------------7-----4----
-------------------------------------------------------

-------------------------------------------------------
-------------------------------------------------------
----------------------6---7--4-------------------------     
--4----4--6b7--4--7----------------4/7--4-----4--------
----4---------------------------------------7----------
-------------------------------------------------------

Guitar :

--2--               --2--                  --2--
--2--               --3--                  --2--
--2--               --4--                  --2--              x2
--4--               --4--                  --4--
--4--               --2--                  --4--
--2--               --2--                  --2--

            
            
Suggest correction
Creating personal tab
Creating personal tab
You can edit any tab online and save it as your Personal.

You can edit, replace or remove any tab part or add personal notes – all changes will be seen only by you.

Personal tabs can be accessed anytime from any device, even offline.
Learn more »
Give kudos to tab author, rate the tab!
1 2 3 4 5
comments
print report bad tab
guest
You may want to rate the tab now too:
select rating
Wanna post a correction for this tab? Suggest correction