Oops, an error
Loading. Please wait.

Miracle Aligner chords

version 7
version 7

Whole song

8,632 views 81 this week
no commentswrite comment
1 2 3 4 5
x 3
add to favorites
×
Save as Personal and add changes to this tab that will be seen only by you. Learn more ›
×
You can save this tab as Personal to edit and correct it or add notes. All changes will be seen only by you. Learn more »
launch autoscroll
font size
0
reset
transpose
0
reset
display chords
guitar tuner
edit
Autoscroll
slow
fast
+/-
esc
set tempo
stop
Author
Difficulty
About this tab version
Strumming pattern explained and riff included. Was this info helpful? Yes No
Strumming
There is no strumming pattern for this song yet. and get +5 IQ
Title:                Miracle Aligner

---------------------Strumming patterns------------------------------
In order for the chorus to be correct a certain strumming needs to be
played.
The pattern is:

            Down mute Down Down mute Down mute Down Down mute

This is played for chords D,F#m and A.For the Bm chord,the pattern is:

              Down mute Down Down mute Down Down Down Down

For the end of pre-chorus, you need to play the D chords on 3 times,
like this:

                       Down (wait) Down Down (x2)

For the verses and the pre-chorus you can play any pattern as long as it sounds
correct.

s-slide

So now we begin.
---------------------------------------------------------------------

[Chorus]

         D
         Tell him what you want and baby he can find you
         F#m
         anything you need.Tell him what you’re needing,
         Bm
         hey,
         A
         oooh
         
                 D
         Come on Miracle aligner, go and get ‘em tiger
         F#m
         Get down on your knees, get down on your knees
         Bm
         again
         A
         oooh

[Verse]
         E                          G#m
         Fifty feet tall and revved up too high
                                  D                          C#m
         All of our exchanges are by candle light, I just realised

         E                                         G#m
         He’ll walk through the walls and creep up behind
                                         D                              C#m
         Make sense of the maze that you were stuck outside, cover your eyes

[Pre-chorus]
                   F#m                B
         Often the humble kind but he can’t deny
                G#                A
         He was born to blow your mind
            Am                    E         D
         Or something along those lines, tonight

[Chorus]

         D
         Tell him what you want and baby he can find you
         F#m
         anything you need.Tell him what you’re needing,
         Bm
         hey,
         A
         oooh
         
                 D
         Come on Miracle aligner, go and get ‘em tiger
         F#m
         Get down on your knees, get down on your knees
         Bm
         again
         A
         oooh

[Riff]
       
         e |-------------------------------------------|
         B |-------------------------------------------|
         G |-----------------6-7-----------------------|
         D |-------6s7s7---7-----9-----7---------------|
         A |-9---9-------9------------9---9--7--9----9-|
         E |---9----------------------------------9----|

         e |-------------------------------------------|
         B |-------------------------------------------|
         G |-----------------6-7-----------------------|
         D |-------6s7s7---7-----9-----7---------------|
         A |-9---9-------9------------9---9--7--9------|
         E |---9---------------------------------------|

[Verse]

         E                                 G#m
         So what’s the wish, he’ll make it come true
                                 D
         Simple as a line out of a Doo Wop tune
                        C#m
         He’ll make the moves

[Pre-chorus]
                   F#m                B
         Often the humble kind but he can’t deny
                G#                A
         He was born to blow your mind
            Am                    E         D
         Or something along those lines, tonight

[Chorus]

         D
         Tell him what you want and baby he can find you
         F#m
         anything you need.Tell him what you’re needing,
         Bm
         hey,
         A
         oooh
         
                 D
         Come on Miracle aligner, go and get ‘em tiger
         F#m
         Get down on your knees, get down on your knees
         Bm
         again
         A
         oooh

[Riff] (x2)
       
         e |-------------------------------------------|
         B |-------------------------------------------|
         G |-----------------6-7-----------------------|
         D |-------6s7s7---7-----9-----7---------------|
         A |-9---9-------9------------9---9--7--9----9-|
         E |---9----------------------------------9----|

         e |-------------------------------------------|
         B |-------------------------------------------|
         G |-----------------6-7-----------------------|
         D |-------6s7s7---7-----9-----7---------------|
         A |-9---9-------9------------9---9--7--9------|
         E |---9---------------------------------------|

            
            
Suggest correction
Creating personal tab
Creating personal tab
You can edit any tab online and save it as your Personal.

You can edit, replace or remove any tab part or add personal notes – all changes will be seen only by you.

Personal tabs can be accessed anytime from any device, even offline.
Learn more »
Give kudos to tab author, rate the tab!
1 2 3 4 5
comments
print report bad tab
guest
You may want to rate the tab now too:
select rating
Wanna post a correction for this tab? Suggest correction