Oops, an error
Loading. Please wait.

My Mistakes Were Made For You Tab

version 1
version 1

Solo

Whole song

Interactive

43 views 9 this week
no commentswrite comment
1 2 3 4 5
3 more votes to show rating
add to favorites
launch autoscroll
font size
0
reset
how to read this tab
guitar tuner
Autoscroll
slow
fast
+/-
esc
set tempo
stop
Help us to improve Ultimate-Guitar.com Take our survey!
×
Author
Difficulty
intermediate
Here's miles solo from the 2016 tour that he plays as an outro.
https://www.youtube.com/watch?v=f0YTwBn-OTU. He uses reverb, analogue
delay and distortion to get the effect.

[Outro solo]
Starts with G string TP close to the bridge.
                       slow upward strum (possibly muted)
                                    |
e|----------------------------------6------|
B|----------------------------------6------|
G|-9~18PM--7~18PM--5~18PM--4~18PM---6------|
D|----------------------------------6------|
A|-----------------------------------------|
E|-----------------------------------------|

e|-----------------------------------------|
B|-----------------------------------------|
G|-9~18PM--7~18PM--5~18PM--4~18PM----------|
D|----------------------------------5/7----|
A|-----------------------------------------|
E|-----------------------------------------|


************************************

| ~   Vibrato
| PM  Palm mute
| /   Slide up

************************************
Suggest correction
Give kudos to tab author, rate the tab!
1 2 3 4 5
comments
print report bad tab
guest
You may want to rate the tab now too:
select rating
Wanna post a correction for this tab? Suggest correction