Oops, an error
Loading. Please wait.

She Does The Woods Tab

187 views 6 this week
1 commentread comment
1 2 3 4 5
2 more votes to show rating
add to favorites
launch autoscroll
font size
0
reset
how to read this tab
guitar tuner
Autoscroll
slow
fast
+/-
esc
set tempo
stop
Help us to improve Ultimate-Guitar.com Take our survey!
×
Author
Difficulty
novice
About this tab version
Let me know if there's anything I've missed or anything that could be included such as stuff they do live. thanks. Was this info helpful? Yes No
This is tab for the miles guitar that he plays in the song. 
pretty much all notes he plays are done with strong vibrato.

Through the verses in the live performance miles plays the part of the violins like this.
TP stands for tremolo picking.

e|-12-------12--------12--------12-----------------------------------|
B|-12-------13--------12--------13-13tp------------------------------|
G|-12-------12--------12--------12-----------------------------------|   And repeat
D|-------------------------------------------------------------------|
A|-------------------------------------------------------------------|
E|-------------------------------------------------------------------|

when alex plays AM on acoustic miles plays this
e|-8-----------------------------------------------------------------|
B|-10----------------------------------------------------------------|
G|-9-----------------------------------------------------------------|
D|-------------------------------------------------------------------|
A|-------------------------------------------------------------------|
E|-------------------------------------------------------------------|

[Chorus 1]

e|-------------------------------------------------------------------|
B|-------------------------------------------------------------------|
G|------------------------------------------------------10-9--12b----|
D|-------------------------------------------------------------------|
A|-----------------------5-3-5-0-1------------5/2--6-5---------------|
E|-5-5-8-5/1--5-5-8-5/1------------4-4-4-0--3------------------------|


[Chorus 2] Bend down in pitch for the 6 bends.(pull string down instead of push up)

e|-------------------------------------------------------------------|
B|-------------------------------------------------------------------|
G|-------------------------------------------------------------------|
D|---------------------------------------6b--2~--6b--2~--------------|
A|-----------------------5-3-5-0-1-----------------------------------|
E|-5-5-8-5/1--5-5-8-5/1------------4-4-4-----------------------------|

[Verse 3] (2.20)

e|-------------------------------------------------------------------|
B|-------------------------------------------------------------------|
G|-10/9~-------------------------------------------------------------|
D|------------------------3~----2~-3~--------------------------------|
A|---------------------------2~--------------------------------------|
E|-------------------------------------------------------------------|


[Outro]

e|---------------------------------------------------------------------------|
B|---------------------------------------------------------------------------|
G|---------------------------------------------------------------------------|
D|---------------------------------------------------------------------------|
A|-----------------------5-3-5-0-1-------5-3-5-0-1-------5-3-5-0-1-----------|
E|-5-5-8-5/1--5-5-8-5/1------------4-4-4-----------4-4-4-----------4-4-4-----|



************************************

| x   Dead note
| g   Grace note
| (n) Ghost note
| h   Hammer-on
| p   Pull-off
| r   Release
| >   Accented note
| t   Tapping
| b   Bend
| br  Bend release
| pb  Pre-bend
| pbr Pre-bend release
| /   Slide up
| \   Slide down
| ~   Vibrato
| s   Slap
| P   Pop
| PM  Palm mute
| TR  Trill
| N   Tremolo

************************************
Suggest correction
Give kudos to tab author, rate the tab!
1 2 3 4 5
comments
print report bad tab
1 comment total.
0 reply
marqiss 170 Sep 07, 2016 06:56 PM

If you would like to add to your tab, in live version during the verse Miles plays something like this

e|------------12--12--12--12---------------------|
B|------------12--13--12--13---------------------|
G|------------12--12--12--12---------------------|
D|-----------------------------------------------|
A|-----------------------------------------------|
E|-----------------------------------------------|

and then when alex plays Am in acoustic Miles plays Am like this

e|------------8---------|
B|------------10--------|
G|------------9---------|
D|----------------------|
A|----------------------|
E|----------------------|

Cheers!

guest
You may want to rate the tab now too:
select rating
Wanna post a correction for this tab? Suggest correction