Oops, an error
Loading. Please wait.

She Does The Woods Tab

328 views 1 this week
1 commentread comment
1 2 3 4 5
2 more votes to show rating
add to favorites
launch autoscroll
font size
0
reset
how to read this tab
guitar tuner
Autoscroll
slow
fast
+/-
esc
set tempo
stop
Author
Difficulty
novice
About this tab version
Let me know if there's anything I've missed or anything that could be included such as stuff they do live. thanks. Was this info helpful? Yes No
This is tab for the miles guitar that he plays in the song. 
pretty much all notes he plays are done with strong vibrato.

Through the verses in the live performance miles plays the part of the violins like this.
TP stands for tremolo picking.

e|-12-------12--------12--------12-----------------------------------|
B|-12-------13--------12--------13-13tp------------------------------|
G|-12-------12--------12--------12-----------------------------------|   And repeat
D|-------------------------------------------------------------------|
A|-------------------------------------------------------------------|
E|-------------------------------------------------------------------|

[Pre-chorus]Follows acoustic with single strums

C/G                 
e|-0-|
B|-1-|
G|-0-|
D|-2-|
A|-3-|
E|-3-|
They pass us by and 

G
e|-3-|
B|-3-|
G|-4-|
D|-5-|
A|-x-|
E|-x-|
we’re just out of view

Am
e|-5-|
B|-5-|
G|-5-|
D|-6-|
A|-x-|
E|-x-|
Yeah they don’t have a clue

Fm
e|-1-|
B|-1-|
G|-1-|
D|-3-|
A|-x-|
E|-x-|
They’re in ones they’re in two's

F
They’re in sensible shoes
e|-1-|
B|-1-|
G|-2-|
D|-3-|
A|-x-|
E|-x-|

Fm
They’re in purple cagoules
e|-1-|
B|-1-|
G|-1-|
D|-3-|
A|-x-|
E|-x-|

[Chorus 1]

e|-------------------------------------------------------------------|
B|-------------------------------------------------------------------|
G|------------------------------------------------------10-9--12b----|
D|-------------------------------------------------------------------|
A|-----3----------3------5-3-5-0-1------------5/2--6-5---------------|
E|-5-5---5/1--5-5---5/1------------4-4-4-0--3------------------------|

[pre-chorus repeats same as before]

[Chorus 2] Bend down in pitch for the 6 bends.(pull string down instead of push up)

e|-------------------------------------------------------------------|
B|-------------------------------------------------------------------|
G|-------------------------------------------------------------------|
D|---------------------------------------6b--3~--6b--3~--------------|
A|-----3----------3------5-3-5-0-1-----------------------------------|
E|-5-5---5/1--5-5---5/1------------4-4-4-----------------------------|

[Verse 3] (2.20)

e|-------------------------------------------------------------------|
B|-------------------------------------------------------------------|
G|-10/9~-------------------------------------------------------------|
D|------------------------3~----2~-3~--------------------------------|
A|---------------------------2~--------------------------------------|
E|-------------------------------------------------------------------|


[Outro]

e|---------------------------------------------------------------------------|
B|---------------------------------------------------------------------------|
G|---------------------------------------------------------------------------|
D|---------------------------------------------------------------------------|
A|-----3----------3------5-3-5-0-1-------5-3-5-0-1-------5-3-5-0-1-----------|
E|-5-5---5/1--5-5---5/1------------4-4-4-----------4-4-4-----------4-4-4-----|



************************************

| b   Bend
| /   Slide up
| \   Slide down
| ~   Vibrato
| PM  Palm mute
| TR  Trill
| N   Tremolo

************************************
Suggest correction
Give kudos to tab author, rate the tab!
1 2 3 4 5
comments
print report bad tab
1 comment total.
0 reply
marqiss 308 Sep 07, 2016 02:56 PM

If you would like to add to your tab, in live version during the verse Miles plays something like this

e|------------12--12--12--12---------------------|
B|------------12--13--12--13---------------------|
G|------------12--12--12--12---------------------|
D|-----------------------------------------------|
A|-----------------------------------------------|
E|-----------------------------------------------|

and then when alex plays Am in acoustic Miles plays Am like this

e|------------8---------|
B|------------10--------|
G|------------9---------|
D|----------------------|
A|----------------------|
E|----------------------|

Cheers!

guest
You may want to rate the tab now too:
select rating
Wanna post a correction for this tab? Suggest correction