Oops, an error
Loading. Please wait.

Standing Next To Me Tab

version 1
version 1

Whole song

Interactive

46,649 views 45 this week
5 commentsread comments
1 2 3 4 5
x 8
add to favorites
launch autoscroll
font size
0
reset
how to read this tab
guitar tuner
Autoscroll
slow
fast
+/-
esc
set tempo
stop
Help us to improve Ultimate-Guitar.com Take our survey!
×
-------------------------------------------------------------------------------
                  Standing Next to Me - The Last Shadow Puppets
-------------------------------------------------------------------------------
Tabbed by: Arctic Monkey

Tuning: Standard E

Listen to the song for strumming patterns.
I tabbed this from a live version you can see on their website.
Its identical to the album version just easier to transcribe because,
the orchestra was not playing over the guitars. Enjoy!


Play the Am chord like this for the Verse, (Am) means to play it this way.
e|---------------------------------------------------------------------------|
B|----1-1------------1-1------------1-1------------1-1-----------------------|
G|----2-2------------2-2------------2-2------------2-2-----------------------|
D|----2-2------------2-2------------2-2------------2-2-----------------------|
A|-0--------------0--------------0--------------0----------------------------|
E|---------0-3------------0-3------------0-3------------0-3------------------|


[Verse 1]

       (Am)    F      Em     F      Em
e|-------------1-------------1-----------------------------------------------|
B|------1------1-------------1-----------------------------------------------|
G|------2------2-------------2-----------------------------------------------|
D|------2------3------2------3------2----------------------------------------|
A|-------------3------2------3------2----------------------------------------|
E|-------------1-------------1-----------------------------------------------|


[Chorus]

       (Am)    F      Em     F      Em
e|-------------1-------------1-----------------------------------------------|
B|------1------1------1------1-----------------------------------------------|
G|------2------2------2------2-----------------------------------------------|
D|------2------3------2------3------2----------------------------------------|
A|-------------3-------------3------2----------------------------------------|
E|-------------1-------------1-----------------------------------------------|


[Verse 2]

       (Am)    F      Em     F      Em
e|-------------1-------------1-----------------------------------------------|
B|------1------1-------------1-----------------------------------------------|
G|------2------2-------------2-----------------------------------------------|
D|------2------3------2------3------2----------------------------------------|
A|-------------3------2------3------2----------------------------------------|
E|-------------1-------------1-----------------------------------------------|


[Chorus]

     Am   F    Am   F    Em   Am   F    Dm   Em   Am   F    Dm   Em   Dm
e|--------1---------1--------------1----1--------------1----1---------1------|
B|---1----1----1----1---------1----1----3---------1----1----3---------3------|
G|---2----2----2----2---------2----2----2---------2----2----2---------2------|
D|---2----3----2----3----2----2----3---------2----2----3---------2-----------|
A|--------3---------3----2---------3---------2---------3---------2-----------|
E|--------1---------1--------------1-------------------1---------------------|


[Solo]

Guitar 1 (Alex Turner)

e|-5-------------------------------------------------------------------------|
B|-6-------------------------------------------------------------------------|
G|-7-----4-5-4---4-5-7---9----7----9----7--9-7----------9-7--------4-5-4--9-7|
D|-7---7-------------------9----9----9---------9--5-7--------5-7-------------|
A|-5-------------------------------------------------------------------------|
E|---------------------------------------------------------------------------|

Guitar 1
e|-----------------------------------5---------------------------------------|
B|-----------------------------------5---------------------------------------|
G|---4--5--7--5----5--7--9--7----4---5---------------------------------------|
D|-5---------------------------------7---------------------------------------|
A|-----------------------------------7---------------------------------------|
E|-----------------------------------5---------------------------------------|


[Verse 3]

     Am   F    Em   F    Em
e|--------1---------1--------------------------------------------------------|
B|---1----1---------1--------------------------------------------------------|
G|---2----2---------2--------------------------------------------------------|
D|---2----3----2----3----2---------------------------------------------------|
A|--------3----2----3----2---------------------------------------------------|
E|--------1---------1--------------------------------------------------------|


[Chorus]

     Am   F    Dm   Em   Am   F    Dm   Em   Am
e|--------1----1--------------1----1-----------------------------------------|
B|---1----1----3---------1----1----3---------1-------------------------------|
G|---2----2----2---------2----2----2---------2-------------------------------|
D|---2----3---------2----2----3---------2----2-------------------------------|
A|--------3---------2---------3---------2------------------------------------|
E|--------1-------------------1----------------------------------------------|
Suggest correction
comments
print report bad tab
5 comments total. Showing first comments.
0 reply
Jimmy Curtis 62 Aug 27, 2008 10:41 AM

The open note at the start of the Am chords should be A not D

0 reply
Arnhed 10 Oct 31, 2008 05:33 PM

Great. I really like it

0 reply
V01D3M0RT 30 Dec 28, 2008 09:56 PM

I think F goes like this e-1 a-1 d-2 g-3 h-3 E--. It is easyer and it looks more like what he is doin in teh video!

guest
You may want to rate the tab now too:
select rating
Wanna post a correction for this tab? Suggest correction