Oops, an error
Loading. Please wait.

Sweet Dreams Tn Chords

version 3
version 3

Whole song

  • Change some chords in the pre chorus and chorus, a... Show more
133 views 1 this week
no commentswrite comment
1 2 3 4 5
1 last vote to show rating
add to favorites
launch autoscroll
font size
0
reset
transpose
0
reset
simplify chords
display chords
guitar tuner
Autoscroll
slow
fast
+/-
esc
set tempo
stop
Help us to improve Ultimate-Guitar.com Take our survey!
×
Author
Difficulty
intermediate
About this tab version
Change some chords in the pre chorus and chorus, also there is a tab of the violin. Was this info helpful? Yes No
[Chords]
D: xx0232
F#: 244322
G: 355433
Gm: 355333
Em: 022000
A: x02220
Asus2/A#: x12200
Bm:x24432


[Verse]

                          D
I just sort of always feel sick without you baby
            F#
I ain’t got anything to lick without you baby
            G
Nothing seems to stick without you baby
                     Gm
Ain’t I fallen in love

             D
It’s just the pits without you baby
                      F#
It’s really just the pits without you baby
                       G
It’s like everyone’s a dick without you baby
                     Gm
Ain’t I fallen in love

             D                       F#
And all my pals will tell me’s that I’m crazy
           G           Gm
You bet I’m loopy alright!

           D
And I just don’t recognize this fool
        F#
That you have made me
           G             Gm
Whoa I ain’t seen him for a while

        D
And as your shrinking figure blows a kiss
      F#
I catch and smash it on my lips
        G
Darling I can’t seem to quit
  Gm
Completely falling to bits

  D
I really might be losing it
      F#                               G
The idea that you’ve existed all along’s ridiculous
    Gm
I don’t know what to say


[Pre-Chorus]
        Em       A
Baby we ought to fuck
               Asus2/A#                Bm             
Seven years of bad luck out the powder room mirror
             Em                 F#
Could I have made it any clearer


[Chorus]

     G            Em         Bm
It’s love like a tongue in a nostril
G         Em             Bm
Love like an ache in the jaw
           G            Em
You’re the first day of spring
     Asus2/A#       Bm
With a septum piercing
       Em                 A F#
Little Miss Sweet Dreams, Tennessee


[Outro]

  G           Em       Bm

e-----------------------------------------------
B-----------------------------------------------
G-----4-7-4-7-11-9-7-6-7-6-4--------------------
D-5---------------------------4-----------------
A-----------------------------------------------
E-----------------------------------------------

  G           Em       Bm

e----------------------10-9-7-------------------
B-----------------------------------------------
G-----4-7-4-7-11-9-7-6--------------------------
D-5---------------------------------------------
A-----------------------------------------------
E-----------------------------------------------

     G      Em      Asus2/A#   Bm

e-10-9-10-9-7-15-15-14-12-14--------------------
B-----------------------------------------------
G-----------------------------------------------
D-----------------------------------------------
A-----------------------------------------------
E-----------------------------------------------


G    A    Asus2/A#    Bm
(I couldn't tab the last part)
Suggest correction
Give kudos to tab author, rate the tab!
1 2 3 4 5
comments
print report bad tab
guest
You may want to rate the tab now too:
select rating
Wanna post a correction for this tab? Suggest correction