Oops, an error
Loading. Please wait.

The Age Of The Understatement Tab

version 1
version 1

Interactive

17,841 views 30 this week
2 commentsread comments
1 2 3 4 5
x 3
add to favorites
launch autoscroll
font size
0
reset
how to read this tab
guitar tuner
Autoscroll
slow
fast
+/-
esc
set tempo
stop
Help us to improve Ultimate-Guitar.com Take our survey!
×
Difficulty
novice
Not sure if this is 100% correct, just created by ear and a little bit from watching 
I don't have the chords down yet, so PLEASE feel free to add/correct what you would like (I 
get offended).

any corrections or anything send to : adrian_sousa19@hotmail.com

\ - slide down
/ - slide up
~ - let ring


e |-------------------------|
B |-------------------------|
G |-------------------------|
D |-------------------------|
A |-2--4--5--7--9-----------| x2
E |-------------------------|

e |-------------------------|
B |-------------------------|
G |-2/4~~~~~----------------|
D |-------------------------|
A |-------------------------|
E |-------------------------|


Right after first verse...
e |-----------------------------|
B |-----------------------------|
G |-------------2/4~~~~---------|
D |-----------------------------|
A |-----------------------------|
E |---10\5----------------------|


"She was walking on the tables....."
e |--------------------------|
B |--------------------------|
G |--------------------------|
D |--------------------------|
A |--0------2~---------------|
E |------3-------------------|


"Twenty little tragedies....."
e |---7/10--10-10-10/12-12-12-12/15-15-15-14\0-------------|
B |--------------------------------------------------------|
G |--------------------------------------------------------|
D |--------------------------------------------------------|
A |--------------------------------------------------------|
E |--------------------------------------------------------|


Right before "And she was...."
e |---------------------------------------------------|
B |--------------9-10--7--8--7------------------------|
G |------11--7-------------------------------11~------|
D |---9--------------------------7--9~----------------|
A |---------------------------------------------------|
E |---------------------------------------------------|

OR

e |-------------------------------------------------------|
B |-------------9-10--7h8---------------------------------|
G |-----11--7--------------9-------------11b--------------|
D |--9-------------------------7--9-----------------------|
A |-------------------------------------------------------|
E |-------------------------------------------------------|
(sometimes miles plays it like this live.....I think).


Right after the chorus (during the ahh-ing)
e |------------------------------|
B |------------------------------|
G |------------------------------|
D |------------------------------|
A |---------------1~---2~--------|
E |----3~---2~-------------------|
Suggest correction
Give kudos to tab author, rate the tab!
1 2 3 4 5
comments
print report bad tab
2 comments total.
0 reply
chris909090 10 Apr 19, 2008 03:15 PM

sounds good enough to me

thanks for tabbing

0 reply
Fozza2008 112 Nov 01, 2008 06:49 PM

it sounds about right but theres a few parts which aren't exactly right.

the third part is played like this:

--------------------
--------------------
--------------2/4~~~
--------------------
----5---------------
---------3----------

and then the second time this part comes around it is played like this:

-------------------------------------------------
---------------------------10br----10br---10br---
--------------2----------------------------------
-------------------------------------------------
----5--------------------------------------------
---------3--------2-2----------------------------

and then the next bit is exactly right, the solo that Miles plays twice is also very similar to how you have done it, in the book it goes like this:

---------------------------------------------------
----------------9--10------------------------------
--------10-------------10--11--10---------9~~------
-----9------12---------------------7---9-----------
---------------------------------------------------
---------------------------------------------------

and then the second time it's played it goes:

--------------------------------------------------
-----------------9--10----------------------------
---------10-------------10--11--10----7-----------
-----9-------12--------------------------7---9~~~-
--------------------------------------------------
--------------------------------------------------

It is a great song though, and a great tab you did :)

guest
You may want to rate the tab now too:
select rating
Wanna post a correction for this tab? Suggest correction