Oops, an error
Loading. Please wait.

Used To Be My Girl tab

version 2
version 2

Whole song

2,389 views 15 this week
1 commentread comment
1 2 3 4 5
x 4
add to favorites
×
Save as Personal and add changes to this tab that will be seen only by you. Learn more ›
×
You can save this tab as Personal to edit and correct it or add notes. All changes will be seen only by you. Learn more »
launch autoscroll
font size
0
reset
how to read this tab
guitar tuner
edit
Autoscroll
slow
fast
+/-
esc
set tempo
stop
Author
[Main Riff](Verse 1 & 2)

e|---------------------------------------------------------------------------|
B|---------------------------------------------------------------------------|
G|---------------------------------------------------------------------------|
D|------2-----2---2-----2-----2---2-----2-----2---2--------------------------|
A|--------------1---------------1---------------1---0---0-1-0---0------------|
E|--0-0---0-0-------0-0---0-0-------0-0---0-0-----------------3--------------|

[Verse 1]

[Solo]
                                                                             x2
e|---------------------------------7-6-5-3-0-3-5-6-7-6-7-3~~-----------------|
B|--10-10br-10\8-8\7-7\5-5-7br-0---------------------------------------------|
G|---------------------------------------------------------------------------|
D|---------------------------------------------------------------------------|
A|---------------------------------------------------------------------------|
E|---------------------------------------------------------------------------|

[Verse 2]

ends with G x3

[Verse 3]

E
The odyssey
                  
Came down kind of hard on me
                     A
The here and now so suddenly
A#                 E       G x3
Became a different world
E                        
Finally I slipped out of reality
               A
It must all be imaginary
A#                E
She used to be my girl

[Outro]

              C      E
Used to be my girl
              C      E
Used to be my girl
              C      E
Used to be my girl
              C   
Used to be my girl


e|------------------------------------------------------------------------------|
B|-------------17b~--------------------17br--17-15/17-17/19-19----19b-19b-19b---|
G|--9b~---------------------9b~-------------------------------------------------|
D|------------------------------------------------------------------------------|
A|------------------------------------------------------------------------------|
E|------------------------------------------------------------------------------|

************************************

| br  Bend release
| /   Slide up
| \   Slide down
| ~   Vibrato

************************************

            
            
Suggest correction
Creating personal tab
Creating personal tab
You can edit any tab online and save it as your Personal.

You can edit, replace or remove any tab part or add personal notes – all changes will be seen only by you.

Personal tabs can be accessed anytime from any device, even offline.
Learn more »
comments
print report bad tab
1 comment total.
0 reply
jpclopes2015 10 Aug 18, 2016 12:46 PM

good enough :)

guest
You may want to rate the tab now too:
select rating
Wanna post a correction for this tab? Suggest correction