Oops, an error
Loading. Please wait.

Raw Dog tab

version 2
version 2

Whole song

Interactive

2,249 views 3 this week
no commentswrite comment
1 2 3 4 5
2 more votes to show rating
add to favorites
×
Save as Personal and add changes to this tab that will be seen only by you. Learn more ›
×
You can save this tab as Personal to edit and correct it or add notes. All changes will be seen only by you. Learn more »
launch autoscroll
font size
0
reset
how to read this tab
guitar tuner
edit
Autoscroll
slow
fast
+/-
esc
set tempo
stop
Author
RAW DOG TAB

This is only done for one guitar,so if you want the other one, go find another tab.

most of the credit to the guy who did version 1, i just corrected a few things and did the solo

e[-------------5p4p2-5p4p2-5p4p2-5p4p2--------------5-4-2-7~ ---]
B[--------------------------------------------------------------]
G[--------------------------------------------------------------]
D[-2-2-2-5----------------------------------2-2-2-5-------------]
A[-2-2-2-5----------------------------------2-2-2-5-------------]
E[-0-0-0-3----------------------------------0-0-0-3-------------]


e[--------------10p9p7-10p9p7-10p9p7-10p9p7-------------------]
B[------------------------------------------------------------]
G[------------------------------------------------------11b~--]
D[-2-2-2-5------------------------------------2-2-2-5---11b~--]
A[-2-2-2-5------------------------------------2-2-2-5----9b~--]
E[-0-0-0-3------------------------------------0-0-0-3---------]


e]-------------------------------------------------------]
B]-------------------------------------------------------]
G]-9-------------------------------9---------------------]—x 3
D]-9-------------------------------9---------------------]
A]-7---7-5-7-7-5-7-5---------------7---7-5-7-7-5---------]
E]--------------------7-6-6-5--------------------7-6-5-3-]


e]-------------------------------------------7-6-5-4~ ----]
B]--------------------------------------------------------]
G]-9--9-7-9-9-7-9-7-----------9---9-7-9-9-7---------------]
D]-9----------------9-8-8-7---9---------------------------]
A]-7--------------------------7---------------------------]
E]--------------------------------------------------------]


e]------------------------------------------------------------]
B]------------------------------------------------------------]
G]---------------------------------------------------3-2-1----]
D]-5-5-5-5-5-4-3-2-5-5-5-5-5-4-3--2-2---5-5---2-2-------------]
A]-5-5-5-5-5-4-3-2-5-5-5-5-5-4-3--2-2---5-5---2-2-------------]
E]-3-3-3-3-3-2-1-0-3-3-3-3-3-2-1--0-0---3-3---0-0-------------]
                           ^^^^^^^^^^^
                           this bit x2
                           vvvvvvvvvvv
                e[-------------------------]
                B[-------------------------]
                G[--------------------3-2-1]
                D[-2-2---5-5---2-2---------]
                A[-2-2---5-5---2-2---------]
                E[-0-0---3-3---0-0---------]

e]--------------------------------------------------------]
B]--------------------------------------------------------]
G]-9-------------------------------9----------------------]
D]-9-------------------------------9----------------------]
A]-7---7-5-7-7-5-7-5---------------7---7-5-7-7-5----------]
E]--------------------7-6-6-5---------------------7-6-5-3-]


e]--------------------------------------------7-6-5-4~-]
B]-----------------------------------------------------]
G]-9--9-7-9-9-7-9-7------------9---9-7-9-9-7-----------]
D]-9-----------------9-8-8-7---9-----------------------]
A]-7---------------------------7-----------------------]
E]-----------------------------------------------------]

e]------------------------------------------------------------]
B]------------------------------------------------------------]
G]---------------------------------------------------3-2-1----]
D]-5-5-5-5-5-4-3-2-5-5-5-5-5-4-3--2-2---5-5---2-2-------------]
A]-5-5-5-5-5-4-3-2-5-5-5-5-5-4-3--2-2---5-5---2-2-------------]
E]-3-3-3-3-3-2-1-0-3-3-3-3-3-2-1--0-0---3-3---0-0-------------]
                           ^^^^^^^^^^^
                           this bit x2
                           vvvvvvvvvvv
                e[-------------------------]
                B[-------------------------]
                G[--------------------3-2-1]
                D[-2-2---5-5---2-2---------]
                A[-2-2---5-5---2-2---------]
                E[-0-0---3-3---0-0---------]


e[---3-0----------------------------------------------------]
B[-------3-0------------------------------------------------]
G[------------2-0-------------------------------------------]
D[-----------------2-0—---77777777999999995555555577777777--]
A[------------------------77777777999999995555555577777777--]
E[------------------------55555555777777773333333355555555--]


e[-------------5p4p2-5p4p2-5p4p2-5p4p2--------------5-4-2-7~---]
B[-------------------------------------------------------------]
G[-------------------------------------------------------------]
D[-2-2-2-5---------------------------------2-2-2-5-------------]
A[-2-2-2-5---------------------------------2-2-2-5-------------]
E[-0-0-0-3---------------------------------0-0-0-3-------------]


e[--------------10p9p7-10p9p7-10p9p7-10p9p7---------------------]
B[--------------------------------------------------------------]
G[------------------------------------------------------11b~----]
D[-2-2-2-5------------------------------------2-2-2-5---11b~----]
A[-2-2-2-5------------------------------------2-2-2-5----9b~----]
E[-0-0-0-3------------------------------------0-0-0-3-----------]


------------------------------SOLO------------------------------------------
use a wah pedal to get the sound.
it isn't perfect, but its all the basic lick. feel free to improvise around the notes if 
dont think its good.

rp=repick


e]---------7h10p7-------7h10p7-------7h10p10-------7h10p7---]
B]-10b12rp--------10b12--------10b12---------10b12----------]
G]----------------------------------------------------------]
D]----------------------------------------------------------]
A]----------------------------------------------------------]
E]----------------------------------------------------------]

e]---7-10-7-10-7---10-10p7-]
B]---7-10-7-10-7---10-10p7-]
G]-9-------------9---------]
D]-------------------------]
A]-------------------------]
E]-------------------------]

e]----------------------------------------8-8-8--11-11-11--8-8-8-8-]
B]--------------------10-10-10--12-12-12---------------------------]
G]--/9-9-9--11-11-11-----------------------------------------------]
D]-----------------------------------------------------------------]
A]-----------------------------------------------------------------]
E]-----------------------------------------------------------------]
         hold bend
e]-12----12-12-12----12-12-------]
B]-15b17-------15b17-------15b17-]
G]-------------------------------]
D]-------------------------------]
A]-------------------------------]
E]-------------------------------]

e[-12h15p12-------12h15p12-------12p15p12-------12h15p12-]
B[----------15b17----------15b17----------15b17----------]
G[-------------------------------------------------------]
D[-------------------------------------------------------]
A[-------------------------------------------------------]
E[-------------------------------------------------------]

e]-16p13p12-16p13p12-16p13p12-16p13p12-]
B]-------------------------------------]
G]-------------------------------------]
D]-------------------------------------]
A]-------------------------------------]
E]-------------------------------------]
use huge vibrato on these notes

     not sure about this bit
             vvvvvvvvv
e]-/12~12~12~--------------7h10p7-7--7h10p7-7-]
B]-----------/12~12~12~-10--------------------]
G]--------------------------------------------]
D]--------------------------------------------]
A]--------------------------------------------]
E]--------------------------------------------]

e]-------------------------------------------------]
B]-10-12-10h12p10--8-10-8h10p8-8-6-5-----6-5-------]
G]-----------------------------------7-5-----7-5---]
D]-----------------------------------------------7-]<--sustain this note
A]-------------------------------------------------]
E]-------------------------------------------------]
vocals re-enter
not really sure about this bit either
e]-----------------------------------------------------------]
B]-----------------------------------------------------------]
G]--------------------4--------------------------------------]
D]-------4--------4-7---7-4--7-9-7h9p7-5-7-5h7p5-3-5-3h5p3-3-]
A]---5-7---7-5--7--------------------------------------------]
E]-7---------------------------------------------------------]

e]-15b17---12-13p12p10-12p10p9-10p9p7-9p7p6-7p6p4-]
B]------------------------------------------------]
G]------------------------------------------------]
D]------------------------------------------------]
A]------------------------------------------------]
E]------------------------------------------------]

e[---3-0----------------------------------------------------]
B[-------3-0------------------------------------------------]
G[------------2-0-------------------------------------------]
D[-----------------2-0—---77777777999999995555555577777777--]
A[------------------------77777777999999995555555577777777--]
E[------------------------55555555777777773333333355555555--]


e]-------------------------------------------------------]
B]-------------------------------------------------------]
G]-9-------------------------------9---------------------]—x 2
D]-9-------------------------------9---------------------]
A]-7---7-5-7-7-5-7-5---------------7---7-5-7-7-5---------]
E]--------------------7-6-6-5--------------------7-6-5-3-]


e]------------------------------------------------7-6-5-4~----]
B]------------------------------------------------------------]
G]-9---9-7-9-9-7-9-7--------------9---9-7-9-9-7---------------]—x2
D]-9------------------9-8-8-7-----9---------------------------]
A]-7------------------------------7---------------------------]
E]------------------------------------------------------------]


e[--------------------------------------------------------------]
B[--------------------------------------------------------------]
G[-------------------------------------------9---7--------------]
D[-2-2----------2-2-----------2-2------------------9-8-7-5------]—x2
A[-2-2----------2-2-----------2-2-------------------------------]
E[-0-0----------0-0-----------0-0-------------------------------]
         Yeah!         Ooh!
          Huh!


e[-----------]
B[-----------]
G[-----------]
D[--2-2~-----]
A[--2-2~-----]
E[--0-0~-----]

            
            
Suggest correction
Creating personal tab
Creating personal tab
You can edit any tab online and save it as your Personal.

You can edit, replace or remove any tab part or add personal notes – all changes will be seen only by you.

Personal tabs can be accessed anytime from any device, even offline.
Learn more »
Give kudos to tab author, rate the tab!
1 2 3 4 5
comments
print report bad tab
guest
You may want to rate the tab now too:
select rating
Wanna post a correction for this tab? Suggest correction