Oops, an error
Loading. Please wait.

Tuenstiles Bass Tab

153 views 3 this week
no commentswrite comment
1 2 3 4 5
please rate
add to favorites
launch autoscroll
font size
0
reset
guitar tuner
Tab Pro tools
  • play this tab
  • loop segment
  • change instrument
  • show fretboard
  • metronome
×
Best way to learn
"Tuenstiles"
Autoscroll
slow
fast
+/-
esc
set tempo
stop
Difficulty
novice
Intro


  Verse:
 |      <-x2->       |
G|-------------------|-----------------------------|
D|-------------------|-----------------------------|
A|-------------------|-----------------4-4-4-4-4-4-|
E|-6*-4*-6*-4*-2*-4*-|--2-2--4-4--6-6--------------|


 |   <-x2->    |
G|-------------|-----------------------------------|
D|-------------|-----------------------------------|
A|-------------|--4*----------4*-------------------|
E|-2*-4*-6*-4*-|-----4*-6*-2*----4*-1*-2*----------|


  Bridge:
 |    <-x2->     |
G|---------------|
D|---/6----------|
A|-4*------------|
E|------2*-4-4-2-|

  Verse
 |Only Guitar |
G|-%%%%%%%%%%-|----------------------------------------------------------|
D|-%%%%%%%%%%-|----------------------------------------------------------|
A|-%%%%%%%%%%-|------------------------------------------4-4-4-4-4-4-----|
E|-%%%%%%%%%%-|-2*-4*-6*-4*-6*-4*-2*-4*---2-2--4-4--6-6------------------|


 |   <-x2->    |
G|-------------|------------------------------------|
D|-------------|------------------------------------|
A|-------------|------------------------------------|
E|-2*-4*-6*-4*-|-1*-2-2-2-2-2-4-4-2-2-4-4-2-2-------|


  Refrain:
 |                     <-x2->                       |
G|---------------------------------------6-6-8-8-6--|
D|--------6*-4-4-4-4-6-6-4-4--------4*-4------------|
A|-----4*------------------------4*-----------------|
E|--6*------------------------6*--------------------|


G|--------------------------------------------------|
D|--------------------------------------------------|
A|-------------------------------4*-----------------|
E|--6*-4*-2*-4-4-2-2-4-4-2-2--6*----4*-2*-----------|


  Outro:
 |         <-x2->             |  Intro  |
G|----------------------------|--%%%%%--|-----|
D|----------------------------|--%%%%%--|-----|
A|----------------------------|--%%%%%--|-----|
E|--6*-4*-2*-4-4-2-2-4-4-2-2--|--%%%%%--|-6~--|



"*"= Play ca. 8 times
"/"= Slide up to
comments
We did not receive enough feedback on this tab! Please rate:
print report bad tab
1 2 3 4 5
I want to post or [tab]
guest
You may want to rate the tab now too:
select rating
Please do not post tabs as comments. Select "correction" instead!