Oops, an error
Loading. Please wait.

Green Tambourine 1968 album bass

19 views 3 this week
no commentswrite comment
1 2 3 4 5
3 more votes to show rating
add to favorites
×
Save as Personal and add changes to this tab that will be seen only by you. Learn more ›
×
You can save this tab as Personal to edit and correct it or add notes. All changes will be seen only by you. Learn more »
launch autoscroll
font size
0
reset
guitar tuner
edit
Autoscroll
slow
fast
+/-
esc
set tempo
stop
--------------------------------------------------------------------------
                          Artist - The Lemon Pipers
                         ***************************
                             Song - Rice Is Nice
                            *********************
                      Album - Green Tambourine (1968)
                     *********************************
                           Tabbed By - Ayreon77
                          **********************
--------------------------------------------------------------------------
Tuning = Standard             



00:13
VERSE 1
********
G|-------------------|---------------|------------2-2-----|-----2-------|-2-------|-------|
D|-------7-7---------|-----7-7-------|--------3-3-----2-2-|---3---3-2-5-|---2-----|-------|
A|---5-5-----7-7-----|-5-5-----7-7---|--345-5-------------|-5-----------|-----4-0-|-0-2-4-|
E|-5-------------5-5-|-------------5-|-5------------------|-------------|---------|-------|


-----------------------
00:30
CHORUS
*******
G|----------------------|-----------------------|
D|-0--0-2-4-4-------0-0-|-----2-2---------------|
A|------------0-2-4-----|-2-2-----0-2-4-5-0-5-0-|
E|----------------------|-----------------------|


G|----------------------|-----------------------|-----------------------|
D|-0--0-2-4-4-------0-0-|-----2-2---------------|-----------------------|
A|------------0-2-4-----|-2-2-----0-2-4-5-5-5-5-|-0-5-3-1-1-1-1-0-0-1-3-|
E|----------------------|-----------------------|-----------------------|

00:51
G|----------------------------------------|-2-2-------|
D|-0--0-2-4-4-------------3-3-3-3-2-2-2-2-|-----3-2-0-|
A|------------0-2-4-5-0-5-----------------|-----------|
E|----------------------------------------|-----------|



-----------------------
01:04
VERSE 2
********
G|-------------------|---------------|------------2-2-----|-----2-------|-2-------|-------|
D|-------7-7---------|-----7-7-------|--------3-3-----2-2-|---3---3-2-5-|---2-----|-------|
A|---5-5-----7-7-----|-5-5-----7-7---|--345-5-------------|-5-----------|-----4-0-|-0-2-4-|
E|-5-------------5-5-|-------------5-|-5------------------|-------------|---------|-------|


-----------------------
01:21
CHORUS
*******
G|----------------------|-----------------------|
D|-0--0-2-4-4-------0-0-|-----2-2---------------|
A|------------0-2-4-----|-2-2-----0-2-4-5-0-5-0-|
E|----------------------|-----------------------|


G|----------------------|-----------------------|-----------------------|
D|-0--0-2-4-4-------0-0-|-----2-2---------------|-----------------------|
A|------------0-2-4-----|-2-2-----0-2-4-5-5-5-5-|-0-5-3-1-1-1-1-0-0-1-3-|
E|----------------------|-----------------------|-----------------------|


G|----------------------------------------|
D|-0--0-2-4-4-------------3-3-3-3-2-2-2-2-|
A|------------0-2-4-5-0-5-----------------|
E|----------------------------------------|


-----------------------
01:49
CHORUS - Key Change
*******
G|------------------------------|-------------------|
D|-3-3----s-------5-5-----------|-------------------|
A|-----1-1\-6-6-8---------5-6-6-|-----8-8-----5-6-6-|
E|--------------------6-8-------|-8-8-----6-8-------|

   Repeat And Fade Out.......................
G|------------------------|-------------------|
D|---------5-5------------|-------------------|
A|---6-6-8----------5-6-6-|-----8-8-----5-6-6-|
E|-6------------6-8-------|-8-8-----6-8-------|


ENJOY................




--------------------------------------------------------------------------
                            Artist - The Lemon Pipers
                           ***************************
                              Song - Shoeshine Boy 
                             **********************
                         Album - Green Tambourine (1968)
                        *********************************
                              Tabbed By - Ayreon77
                             **********************
--------------------------------------------------------------------------
Tuning = Standard


VERSE 1
********
G|-----------------------------------------|---------------|
D|-----------------------------------------|---------------|
A|-6~~~~~~-4~~~~~~-3~~~~~~-----------------|---------------|
E|-------------------------4~~~~~~-1~~~~~~-|-0--6--4--2--1-|


G|-----------------------------------------|------------------|
D|-----------------------------------------|------------------|
A|-6~~~~~~-4~~~~~~-3~~~~~~-----------------|------------------|
E|-------------------------4~~~~~~-1~~~~~~-|-0--6--4--2--1--6-|


-----------------------
00:34
CHORUS
*******
G|-------------|-------------|-------------|-------------|
D|-------------|-------------|-------------|-------------|
A|-6--6---6--6-|-4--4---4--4-|-3--3---3--3-|-2--2---2--2-|
E|------6------|------4------|------3------|------2------|


G|------------------------------------------|
D|------------------------------------------|
A|-1--1--1--1----2--2---2--2--------------1-|
E|-------------1------1------1-3--3--3--3---|

00:50
G|------------------|------------------|------------------|------------------|
D|------------------|------------------|------------------|------------------|
A|-3--3--3-3-3--3-3-|-1--1--1-1-1--1-1-|-0--0--0-0-0--0-0-|----------------1-|
E|------------------|------------------|------------------|-3--3--3-3-3--3---|


G|------------------|------------------|------------------|------------------|---|
D|------------------|------------------|------------------|------------------|---|
A|-3--3--3-3-3--3-3-|-1--1--1-1-1--1-1-|-0--0--0-0-0--0-0-|------------------|---|
E|------------------|------------------|------------------|-3--3--3-3-3--3-3-|-3-|


-----------------------
01:12
VERSE 2
********
G|-----------------------------------------|---------------|
D|-----------------------------------------|---------------|
A|-6~~~~~~-4~~~~~~-3~~~~~~-----------------|---------------|
E|-------------------------4~~~~~~-1~~~~~~-|-0--6--4--2--1-|


G|-----------------------------------------|------------------|
D|-----------------------------------------|------------------|
A|-6~~~~~~-4~~~~~~-3~~~~~~-----------------|------------------|
E|-------------------------4~~~~~~-1~~~~~~-|-0--6--4--2--1--6-|


-----------------------
01:41
CHORUS
*******
G|-------------|-------------|-------------|-------------|
D|-------------|-------------|-------------|-------------|
A|-6--6---6--6-|-4--4---4--4-|-3--3---3--3-|-2--2---2--2-|
E|------6------|------4------|------3------|------2------|


G|--------------------------------------------|
D|--------------------------------------------|
A|-1--1-----1--1--2--2---2---2--------------1-|
E|-------1-------------1---1---1-3--3--3--3---|

01:57
G|------------------|------------------|------------------|------------------|
D|------------------|------------------|------------------|------------------|
A|-3--3--3-3-3--3-3-|-1--1--1-1-1--1-1-|-0--0--0-0-0--0-0-|----------------1-|
E|------------------|------------------|------------------|-3--3--3-3-3--3---|


G|------------------|------------------|------------------|------------------|---|
D|------------------|------------------|------------------|------------------|---|
A|-3--3--3-3-3--3-3-|-1--1--1-1-1--1-1-|-0--0--0-0-0--0-0-|------------------|---|
E|------------------|------------------|------------------|-3--3--3-3-3--3-3-|-3-|


-----------------------
02:21
SOLO
*****
G|-------------------------------------------------|------------|------------|
D|-------------------------------------------------|------------|------------|
A|-6~~~~~~-4~~~~~~-3~~~~~~-2~~~-2---2-4-6--6--6--6-|-4--4--4--4-|-3--3--3--3-|
E|--------------------------------4----------------|------------|------------|

  Repeat This and Fade Out..................................................
G|---------------------------------|--------------------|--------------------|
D|---------------------------------|--------------------|--------------------|  
A|-2~~~-2---2-4-6-6--6-6--6-6--6-6-|-4-4--4-4--4-4--4-4-|-3-3--3-3--3-3--3-3-|
E|--------4------------------------|--------------------|--------------------|



ENJOY...........



--------------------------------------------------------------------------
                            Artist - The Lemon Pipers
                           ***************************
                       Song - Turn Around And Take A Look  
                      ************************************
                         Album - Green Tambourine (1968)
                        *********************************
                              Tabbed By - Ayreon77
                             **********************
--------------------------------------------------------------------------
Tuning = Standard             


00:05
INTRO
******
G|-------------------|
D|-5-5-5-5-4-5-5-5-5-|
A|-------------------|
E|-------------------|


--------------------------------
00:08
VERSE 1
********
G|-----------|---------------------------|-----------|---------------------------|
D|-4-5-5-5-5-|--------s--------s---------|-4-5-5-5-5-|--------s--------s---------|
A|-----------|-3-3-3-3\-8-8-8-8\-5-5-5-5-|-----------|-3-3-3-3\-8-8-8-8\-5-5-5-5-|
E|-----------|---------------------------|-----------|---------------------------|


--------------------------------
00:23
CHORUS
*******
G|-------------------|-------------------|----------------------|
D|---------6-7-7-7-7-|---------4-5-5-5-5-|-3-3----------------5-|
A|-7-7-7-7-----------|-5-5-5-5-----------|-----3-3--5-5--3-3----|
E|-------------------|-------------------|----------------------|


G|---------|----------------------|
D|-5-5-5-5-|-3-3----------------5-|
A|---------|-----3-3--5-5--3-3----|
E|---------|----------------------|


--------------------------------
00:43
BREAK
******
G|-------------------|
D|-5-5-5-5-4-5-5-5-5-|
A|-------------------|
E|-------------------|


--------------------------------
00:46
VERSE 1
********
G|-----------|---------------------------|-----------|---------------------------|
D|-4-5-5-5-5-|--------s--------s---------|-4-5-5-5-5-|--------s--------s---------|
A|-----------|-3-3-3-3\-8-8-8-8\-5-5-5-5-|-----------|-3-3-3-3\-8-8-8-8\-5-5-5-5-|
E|-----------|---------------------------|-----------|---------------------------|


--------------------------------
01:01
CHORUS
*******
G|-------------------|-------------------|----------------------|
D|---------6-7-7-7-7-|---------4-5-5-5-5-|-3-3----------------5-|
A|-7-7-7-7-----------|-5-5-5-5-----------|-----3-3--5-5--3-3----|
E|-------------------|-------------------|----------------------|


G|---------|---------------------|
D|-5-5-5-5-|-3-3---------------5-|
A|---------|-----3-3--5-5--3-3---|
E|---------|---------------------|


--------------------------------
01:22
BREAK
******
G|-------------------|
D|-5-5-5-5-4-5-5-5-5-|
A|-------------------|
E|-------------------|


--------------------------------
01:25
SOLO
*****
G|-------------------|-------------------|-------------------|-------------------|
D|-4-5-5---------2-5-|-5-3-3-2---------4-|-4-5-5---------2-5-|-5-3-3-2-----------|
A|-------5-4-3-3-----|---------3-5-5-7---|-------5-4-3-3-----|---------3-5-3-5-6-|
E|-------------------|-------------------|-------------------|-------------------|

01:40
G|----------|----------|-----------------|----------------------|
D|--------7-|-7--------|---4-7-4-5-5-5-5-|-3-3-------------s--5-|
A|-7-9-10---|---10-9-7-|-5---------------|-----3-3--5-5--3-3\---|
E|----------|----------|-----------------|----------------------|

01:52
G|---s----------|----------------------|
D|-12\--5-5-5-5-|-3-3--------------s-5-|
A|--------------|-----3-3--5-5--3-3\---|
E|--------------|----------------------|


--------------------------------
01:59
BREAK
******
G|-------------------|
D|-5-5-5-5-4-5-5-5-5-|
A|-------------------|
E|-------------------|


--------------------------------
02:03
VERSE 1
********
G|-----------|---------------------------|-----------|---------------------------|
D|-4-5-5-5-5-|--------s--------s---------|-4-5-5-5-5-|--------s--------s---------|
A|-----------|-3-3-3-3\-8-8-8-8\-5-5-5-5-|-----------|-3-3-3-3\-8-8-8-8\-5-5-4-5-|
E|-----------|---------------------------|-----------|---------------------------|


--------------------------------
02:18
CHORUS
*******
G|-----------------|-----------------|---------------------|
D|---5---6-7-------|---4-7-4-5-5---5-|-3-3---------------5-|
A|-7---7-----7---7-|-5-----------5---|-----3-3--5-5--3-3---|
E|-------------5---|-----------------|---------------------|


G|---------|---------------------|
D|-5-5-5-5-|-3-3---------------5-|
A|---------|-----3-3--5-5--3-3---|
E|---------|---------------------|


G|---s----------|----------------------|
D|-12\--5-5-5-5-|-3-3--------------s---|
A|--------------|-----3-3--5-5--3-3\---|
E|--------------|--------------------3-|



ENJOY............



--------------------------------------------------------------------------
                          Artist - The Lemon Pipers
                         ***************************
                             Song - Rainbow Tree
                            *********************
                        Album - Green Tambourine (1968)
                       *********************************
                             Tabbed By - Ayreon77
                            **********************
--------------------------------------------------------------------------
Tuning = Standard             


00:12
VERSE 1
********
G|------------|-----------------------|-------------|-------------|
D|------------|-8--8-7--7-5--5--------|---5-8-5-----|-------------|
A|-8--8--8--8-|----------------8--8-6-|-6-------8---|---5-8-5-8---|
E|------------|-----------------------|-----------6-|-6---------6-|

00:23
G|--------------------|------------|---------|
D|-8-7--7-5--5--------|---5-8--5---|---5-8-5-|
A|-------------8--8-6-|-6--------6-|-6-------|
E|--------------------|------------|---------|


---------------------------
00:31
CHORUS
*******
G|----------------------------|----------------------------|-----------------------------|
D|----------------------------|----------------------------|-----------------------------|
A|-1--1--1--1-------------1---|-1--1--1--1-------------1---|-1--1--1--1----------------0-|
E|------------3-1--1--0-3---3-|------------3-1--1--0-3---3-|------------3-1--1--1--1-3---|


---------------------------
00:44
VERSE 2
********
G|-----------------------|-------------|-------------|
D|-8--8-7--7-5--5--------|---5-8-5-----|-------------|
A|----------------8--8-6-|-6-------8---|---5-8-5-8---|
E|-----------------------|-----------6-|-6---------6-|

00:53
G|--------------------|------------|---------|
D|-8-7--7-5--5--------|---5-8--5---|---5-8-5-|
A|-------------8--8-6-|-6--------6-|-6-------|
E|--------------------|------------|---------|


---------------------------
01:02
CHORUS
*******
G|----------------------------|----------------------------|-----------------------------|
D|----------------------------|----------------------------|-----------------------------|
A|-1--1--1--1-------------1---|-1--1--1--1-------------1---|-1--1--1--1----------------0-|
E|------------3-1--1--0-3---3-|------------3-1--1--0-3---3-|------------3-1--1--1--1-3---|


---------------------------
01:14
HARPSICHORD
************
G|-----------------------|-------------|-------------|
D|-8--8-7--7-5--5--------|---5-8-5-----|-8-5---5---5-|
A|----------------8--8-6-|-6-------8---|-----8---8---|
E|-----------------------|-----------6-|-------------|


---------------------------
01:23
VERSE 3
********
G|-----------------------|-------------|-------------|
D|-8--8-7--7-5--5--------|---5-8-5-----|-------------|
A|----------------8--8-6-|-6-------8---|---5-8-5-8---|
E|-----------------------|-----------6-|-6---------6-|

01:31
G|--------------------|------------|---------|
D|-8-7--7-5--5--------|---5-8--5---|---5-8-5-|
A|-------------8--8-6-|-6--------6-|-6-------|
E|--------------------|------------|---------|


---------------------------
01:40
CHORUS
*******
G|----------------------------|----------------------------|----------------------------|
D|----------------------------|----------------------------|----------------------------|
A|-1--1--1--1-------------1---|-1--1--1--1-------------1---|-1--1--1--1-------------1---|
E|------------3-1--1--0-3---3-|------------3-1--1--0-3---3-|------------3-1--1--0-3---3-|


G|---------------|----------------------------|---------------|----------------------------|
D|---------------|----------------------------|---------------|----------------------------|
A|-----------1---|-1--1--1--1-------------1---|-----------1---|-1--1--1--1-------------1---|
E|-1--1--0-3---3-|------------3-1--1--0-3---3-|-1--1--0-3---3-|------------3-1--1--0-3---3-|

                  Fade Out.................................................................
G|---------------|----------------------------|---------------|----------------------------|
D|---------------|----------------------------|---------------|----------------------------|
A|-----------1---|-1--1--1--1-------------1---|-----------1---|-1--1--1--1-------------1---|
E|-1--1--0-3---3-|------------3-1--1--0-3---3-|-1--1--0-3---3-|------------3-1--1--0-3---3-|



ENJOY.............



--------------------------------------------------------------------------
                          Artist - The Lemon Pipers
                         ***************************
                          Song - Stragglin' Behind
                         **************************
                      Album - Green Tambourine (1968)
                     *********************************
                           Tabbed By - Ayreon77
                          **********************
--------------------------------------------------------------------------
Tuning = Standard             


INTRO
******
G|---------------------------------|---------------------------|
D|-----------0--0------------------|-----0--0------------------|
A|-------0-0------3-0--0-----------|-0-0------3-0--0-----------|
E|-0-2-3-----------------3-0-3-0-3-|-----------------3-0-3-0-3-|


-----------------------
00:11
VERSE 1
********
G|---------------------------|---------------------------|
D|-----0--0------------------|-----0--0------------------|
A|-0-0------3-0--0-----------|-0-0------3-0--0-----------|
E|-----------------3-0-3-0-3-|-----------------3-0-3-0-3-|


G|---------------------------|-------------------|
D|-----0--0------------------|-2-2-2---0---------|
A|-0-0------3-0--0-----------|-------2---2-0-----|
E|-----------------3-0-3-0-3-|---------------3-0-|


-----------------------
00:26
BREAK
******
G|---------------------------------|---------------------------|
D|-----------0--0------------------|-----0--0------------------|
A|-------0-0------3-0--0-----------|-0-0------3-0--0-----------|
E|-0-2-3-----------------3-0-3-0-3-|-----------------3-0-3-0-3-|


-----------------------
00:35
VERSE 2
********
G|---------------------------|---------------------------|
D|-----0--0------------------|-----0--0------------------|
A|-0-0------3-0--0-----------|-0-0------3-0--0-----------|
E|-----------------3-0-3-0-3-|-----------------3-0-3-0-3-|


G|---------------------------|-------------------|
D|-----0--0------------------|-2-2-2---0---------|
A|-0-0------3-0--0-----------|-------2---2-0-----|
E|-----------------3-0-3-0-3-|---------------3-0-|


-----------------------
00:50
BREAK
******
G|---------------------------------|---------------------------|
D|-----------0--0------------------|-----0--0------------------|
A|-------0-0------3-0--0-----------|-0-0------3-0--0-----------|
E|-0-2-3-----------------3-0-3-0-3-|-----------------3-0-3-0-3-|


-----------------------
00:58
SOLO
*****
G|---------0-------|-----------------|
D|---2-3-4---3-2---|---0-1-2-3-1-0---|
A|-3-------------3-|-1-------------1-|
E|-----------------|-----------------|X9

01:33
G|------------------------------------------------|---------------------------|
D|------3-3-3-3-3-----------0--0------------------|-----0--0------------------|
A|-3-3------------------0-0------3-0--0-----------|-0-0------3-0--0-----------|
E|----------------0-2-3-----------------3-0-3-0-3-|-----------------3-0-3-0-3-|


-----------------------
01:45
VERSE 3
********
G|---------------------------|---------------------------|
D|-----0--0------------------|-----0--0------------------|
A|-0-0------3-0--0-----------|-0-0------3-0--0-----------|
E|-----------------3-0-3-0-3-|-----------------3-0-3-0-3-|


G|---------------------------|-------------------|
D|-----0--0------------------|-2-2-2---0---------|
A|-0-0------3-0--0-----------|-------2---2-0-----|
E|-----------------3-0-3-0-3-|---------------3-0-|


-----------------------
02:01
OUTRO
******       Repeat This Until It Changes..............
G|---------------------------------------------------------|
D|---------------------------------------------------------|
A|-0-0-0-0-0-0-0-0-0-0-0-0-0-0-0-0-0-0-0-0-0-0-0-0-0-0-0-0-|
E|---------------------------------------------------------|

02:27                                         Fade Out........................
G|-----------------------------------------------------------------------------|
D|---------4-5-6-7-7-7-7-7-7-7-7-7-7-7-7-7-5-----7-7-7-7-7-5-----7-5---5---5-7-|
A|-4-5-6-7-----------------------------------7---------------7-------7---7-----|
E|---------------------------------------------5---------------5---------------|


ENJOY...........


--------------------------------------------------------------------------
                           Song - Green Tambourine
                          Tabbed by: 6METAL6BASSIST6
                       

Tuning: EADG

G|--------12-12-12--------------------------12-12-12------------------|
D|--------------------------------------------------------------------| x3
A|------------------10--------------------------------10--------------|
E|--------------------------------------------------------------------|

G|--------12-12-12------------------|
D|----------------------------------|
A|------------------10------5---5-/-|
E|----------------------------------|

G|----------------------------------------------------------------|
D|----------------------------4---5-------5-------------------4---|
A|10------10--\---5---5-----3---------------------5---5-----3-----|
E|----------------------------------------------------------------|

0:19

G|----------------------------------------------------------------|
D|5-------5-------------------4---5-------5-------------------4---|
A|----------------5---5-----3---------------------5---5-----3-----|
E|----------------------------------------------------------------|

G|----------------------------------------------------------------|
D|5-------5-------------------4---5-------5-----------------------|
A|----------------5---5-----3---------------------5---5---4---4---|
E|----------------------------------------------------------------|

G|----------------------------------------------------------------|
D|--------------------------------5-------5---------------5---7---|
A|3---3-------3---3---3---3---3-------------------5---5-----------|
E|----------------------------------------------------------------|

G|----------------------------------------------------------------|
D|8-----8-----8---6-----------------------------------------------|
A|----8-----8-----------------------------------------------------|
E|----------------------------------------------------------------|

G|--------------------|
D|--------------------|
A|------------5---/---|
E|--------------------|

G|----------------------------------------------------------------|
D|----------------------------4---5-------5-------------------4---|
A|10------10--\---5---5-----3---------------------5---5-----3-----|
E|----------------------------------------------------------------|

0:43

G|----------------------------------------------------------------|
D|5-------5-------------------4---5-------5-------------------4---|
A|----------------5---5-----3---------------------5---5-----3-----|
E|----------------------------------------------------------------|

G|----------------------------------------------------------------|
D|5-------5-------------------4---5-------5-----------------------|
A|----------------5---5-----3---------------------5---5---4---4---|
E|----------------------------------------------------------------|

G|----------------------------------------------------------------|
D|--------------------------------5-------5-----5---------5---7---|
A|3---3---3---3---3---3---3---3-------------------5---5-----------|
E|----------------------------------------------------------------|

G|----------------------------------------------------------------|
D|8-----8-----8---6-----------------------------------------------|
A|----8-----8-----------------------------------------------------|
E|----------------------------------------------------------------|

G|--------------------|
D|--------------------|
A|------------5---/---|
E|--------------------|

G|----------------------------------------------------------------|
D|----------------------------4---5-------5-------------------4---|
A|10------10--\---5---5-----3---------------------5---5-----3-----|
E|----------------------------------------------------------------|

1:08

G|--------12-12-12--------------------------12-12-12------------------|
D|--------------------------------------------------------------------| x3
A|------------------10--------------------------------10--------------|
E|--------------------------------------------------------------------|

G|--------12-12-12------------------|
D|----------------------------------|
A|------------------10------5---5-/-|
E|----------------------------------|

G|----------------------------------------------------------------|
D|----------------------------4---5-------5-------------------4---|
A|10------10--\---5---5-----3---------------------5---5-----3-----|
E|----------------------------------------------------------------|

1:27

G|----------------------------------------------------------------|
D|5---------------------------4---5---------------------------4---|
A|----------------5---5-----3---------------------5---5-----3-----|
E|----------------------------------------------------------------|

G|----------------------------------------------------------------|
D|5-------5-------------------4---5-------------------------------|
A|----------------5---5-----3---------------------5---5---4---4---|
E|----------------------------------------------------------------|

G|----------------------------------------------------------------|
D|--------------------------------5-------5-----5---------5---7---|
A|3---3---3---3---3---3---3---3-------------------5---5-----------|
E|----------------------------------------------------------------|

G|----------------------------------------------------------------|
D|8-----8-----8---6-----------------------------------------------|
A|----8-----8-----------------------------------------------------|
E|----------------------------------------------------------------|

G|--------------------|
D|--------------------|
A|------------5---/---|
E|--------------------|

G|----------------------------------------------------------------|
D|----------------------------4---5-------5-------------------4---|
A|10------10--\---5---5-----3---------------------5---5-----------|
E|----------------------------------------------------------------|

1:50

G|--------12-12-12--------------------------12--12------------------|
D|5-----------------------------------------------------------------|
A|------------------10------------------------------10--------------|
E|------------------------------------------------------------------|

G|--------12-12-12--------------------------12--12--|
D|--------------------------------------------------|
A|------------------10------------------------------|
E|--------------------------------------------------|



--------------------------------------------------------------------------
                          Artist - The Lemon Pipers
                         ***************************
                            Song - Blueberry Blue
                           ***********************
                        Album - Green Tambourine (1968)
                       *********************************
                             Tabbed By - Ayreon77
                            **********************
--------------------------------------------------------------------------
Tuning = Standard             


INTRO
******
G|---------------|---------------|---------------|---------------|
D|---s-----------|---s-----------|---s-----------|---s-----------|
A|-14\-----------|-14\-----------|-14\-----------|-14\-----------|
E|-----7-7-7-7-7-|-----7-7-7-7-7-|-----7-7-7-7-7-|-----7-7-7-7-7-|


--------------------------------
00:08
VERSE 1
********
G|---------------|---------------|-------------------------------------|
D|---s-----------|---s-----------|---s---------------4-5-5-4-4-2-2-----|
A|-14\-----------|-14\-----------|-14\-----------------------------5-5-|
E|-----7-7-7-7-7-|-----7-7-7-7-7-|-----3-3-3-3-3-3-3-------------------|

00:16
G|-----------|---------------|-----------------|-------------------|
D|-----------|---s-----------|---s-------------|-------------------|
A|-----------|-14\-----------|-14\---7-7---7-7-|---7-7-5-5-4-4-----|
E|-7-7-7-7-7-|-----7-7-7-7-7-|-----7-----7-----|-7-------------7-7-|

02:24
G|-14-14-13-13-11-11-----------------------------|
D|-------------------14-14-12-12-11-11-----------|
A|-------------------------------------14-14---s-|
E|-------------------------------------------12\-|

02:28
G|-----------------------------------------|------------------------|-------------------|
D|-----------------------------------------|------------------------|-------------------|
A|-12-12-11-11-9-9-------------------------|-10-10-10-10-10-10-9-10-|-11-11-11-11-11-11-|
E|-----------------12-12-10-10-9-9-7-7-7-7-|------------------------|-------------------|


--------------------------------
00:36
CHORUS
*******
G|---------------------|---------------|-----------------------------------|
D|---------------------|---------------|--------------------------4-5~~~~~-|
A|-----s-4-4-------7-7-|-----------4-7-|--------4--7-6-5-5-5-5-5-----------|
E|-5--5\------7-7------|-5--5-5-5------|-5--5-5----------------------------|


--------------------------------
00:49
VERSE 2
********
G|---------------|---------------|-------------------------------------|
D|---s-----------|---s-----------|---s---------------4-5-5-4-4-2-2-----|
A|-14\-----------|-14\-----------|-14\-----------------------------5-5-|
E|-----7-7-7-7-7-|-----7-7-7-7-7-|-----3-3-3-3-3-3-3-------------------|

00:57
G|-----------|---------------|-----------------|-------------------|
D|-----------|---s-----------|---s-------------|-------------------|
A|-----------|-14\-----------|-14\---7-7---7-7-|---7-7-5-5-4-4-----|
E|-7-7-7-7-7-|-----7-7-7-7-7-|-----7-----7-----|-7-------------7-7-|

01:04
G|-14-14-13-13-11-11-----------------------------|
D|-------------------14-14-12-12-11-11-----------|
A|-------------------------------------14-14---s-|
E|-------------------------------------------12\-|

01:08
G|-----------------------------------------|------------------------|-------------------|
D|-----------------------------------------|------------------------|-------------------|
A|-12-12-11-11-9-9-------------------------|-10-10-10-10-10-10-9-10-|-11-11-11-11-11-11-|
E|-----------------12-12-10-10-9-9-7-7-7-7-|------------------------|-------------------|


--------------------------------
01:16
CHORUS
*******
G|---------------------|-----------------------------------s-|-----------------------------|
D|---------------------|----------------------------------7\-|-----------------------------|
A|-----s-4-4-------7-7-|----------4-7-8--8-8--7---5--5-5-----|--7--7--7--7--7-7--7-7-7---7-|
E|-5--5\------7-7------|-5--5--5----------------8------------|-7--7--7--7--7-----------7---|


--------------------------------
01:43
VERSE 3
********
G|----------|--------------|------------------------------------|
D|----------|---s----------|---s--------------4-5-5-4-4-2-2-----|
A|----------|-14\----------|-14\----------------------------5-5-|
E|-7-7--7-7-|-----7-7--7-7-|-----3-3-3--3-3-3-------------------|

01:51
G|-----------|-------------------|
D|-----------|-------------------|
A|-7-7---7-7-|---7-7-5-5-4-4-----|
E|-----7-----|-7-------------7-7-|


--------------------------------
01:55
CHORUS
*******
G|---------------------|---------------|---------------------|---------------|
D|---------------------|---------------|---------------------|---------------|
A|-----s-4-4-------7-7-|---------4-5-7-|-----s-4-4-------7-7-|---------7-5-4-|
E|-5--5\------7-7------|-5--5--5-------|-5--5\------7-7------|-5--5--5-------|


G|---------------------|---------------|---------------------|---------------|
D|---------------------|---------7-----|---------------------|---------------|
A|-----s-4-4-------7-7-|-----------7-4-|-----s-4-4-------7-7-|---------4-7-4-|
E|-5--5\------7-7------|-5--5--5-------|-5--5\------7-7------|-5--5--5-------|

  Fade Out.............................
G|---------------------|--------------|
D|---------------------|------7-4-----|
A|-----s-4-4-------7-7-|----------7-4-|
E|-5--5\------7-7------|-5--5---------|



ENJOY..............



--------------------------------------------------------------------------
                            Artist - The Lemon Pipers
                           ***************************
                    Song - The Shoemaker Of Leatherwear Square
                   ********************************************
                         Album - Green Tambourine (1968)
                        *********************************
                              Tabbed By - Ayreon77
                             **********************
--------------------------------------------------------------------------
Tuning = Standard          



VERSE 1
********
G|-----------------|-----------------|------------------|--------------|---------|
D|-----------------|-----------------|------------------|--------------|---------|
A|-7---7---------7-|-7---7---------7-|-7------5--5-7--7-|-7--7--5--5-7-|-7--5--5-|
E|---------7---7---|---------7---7---|---5--5-----------|--------------|---------|


---------------------------
00:24
VERSE 2
********
G|-----------------|-----------------|------------------|--------------|---------|
D|-----------------|-----------------|------------------|--------------|---------|
A|-7---7---------7-|-7---7---------7-|-7------5--5-7--7-|-7--7--5--5-7-|-7--5--5-|
E|---------7---7---|---------7---7---|---5--5-----------|--------------|---------|


---------------------------
00:45
CHORUS
*******
G|--------|--------|--------|--------|--------|--------|--------|--------|
D|--------|--------|--------|--------|--------|--------|--------|--------|
A|--------|--------|--------|--------|--------|--------|--------|--------|
E|-7--7-7-|-7--7-7-|-7--7-7-|-7--7-7-|-7--7-7-|-7--7-7-|-7--7-7-|-7--7-7-|

01:04
G|-------------------|
D|------4-5----------|
A|---7------7-5--5-7-|
E|-7-----------------|


---------------------------
01:08
VERSE 3
********
G|-----------------|-----------------|------------------|--------------|---------|
D|-----------------|-----------------|------------------|--------------|---------|
A|-7---7---------7-|-7---7---------7-|-7------5--5-7--7-|-7--7--5--5-7-|-7--5--5-|
E|---------7---7---|---------7---7---|---5--5-----------|--------------|---------|


---------------------------
01:29
CHORUS
*******
G|--------|--------|--------|--------|--------|--------|---|---------------------|
D|--------|--------|--------|--------|--------|--------|---|---------4-5---------|
A|--------|--------|--------|--------|--------|--------|---|-5----7------7-5---7-|
E|-7--7-7-|-7--7-7-|-7--7-7-|-7--7-7-|-7--7-7-|-7--7-7-|-7-|---------------------|



ENJOY...............



--------------------------------------------------------------------------
                            Artist - The Lemon Pipers
                           ***************************
                             Song - Fifty Year Void 
                            ************************
                         Album - Green Tambourine (1968)
                        *********************************
                              Tabbed By - Ayreon77
                             **********************
--------------------------------------------------------------------------
Tuning = Standard             


INTRO
******
G|--------------|
D|-4---2----2-3-|
A|---4----4-----|
E|--------------|X6


-----------------------
00:11
VERSE 1
********
G|--------------|
D|-4---2----2-3-|
A|---4----4-----|
E|--------------|X8


-----------------------
00:24
CHORUS
*******
G|---------|---------|---------|---------|
D|---------|-------4-|-------4-|-------4-|
A|-4-2-0---|-2-2-2---|-2-2-2---|-2-2-2---|
E|-------2-|---------|---------|---------|


G|-6-4-3--------------------------|-----------------------------|
D|-------4---2-3-4--4-4-----2---4-|---2----2-3-4--4-4-----2---4-|
A|---------4------------4-4---4---|-4----4------------4-4---4---|
E|--------------------------------|-----------------------------|


G|----------------------------|-------------------------|-6-----|
D|---2----2-3-4--4-4----2---4-|---2-4-----2---6---4-2---|-----2-|
A|-4----4------------4----4---|-4-----4-4---4---4-----4-|---4---|
E|----------------------------|-------------------------|-------|


-----------------------
00:53
SOLO
*****
G|--------------|
D|-4---2----2-3-|
A|---4----4-----|
E|--------------|X36


-----------------------
02:00
VERSE 1
********
G|--------------|
D|-4---2----2-3-|
A|---4----4-----|
E|--------------|X8


-----------------------
02:14
CHORUS
*******
G|---------|---------|---------|---------|
D|---------|-------4-|-------4-|-------4-|
A|-4-2-0---|-2-2-2---|-2-2-2---|-2-2-2---|
E|-------2-|---------|---------|---------|


G|-6-4-3--------------------------|-----------------------------|
D|-------4---2-3-4--4-4-----2---4-|---2----2-3-4--4-4-----2---4-|
A|---------4------------4-4---4---|-4----4------------4-4---4---|
E|--------------------------------|-----------------------------|


G|----------------------------|-------------------------|-6-----|
D|---2----2-3-4--4-4----2---4-|---2-4-----2---6---4-2---|-----2-|
A|-4----4------------4----4---|-4-----4-4---4---4-----4-|---4---|
E|----------------------------|-------------------------|-------|


-----------------------
02:42
ORGAN - Play until key change
G|--------------|
D|-4---2----2-3-|
A|---4----4-----|
E|--------------|


-----------------------
04:00
HARMONICA - Key Change
**********
G|----------------|
D|----------------|
A|-5---4----4-5-6-|
E|---5----5-------|


-----------------------
05:00
CHORUS
*******
G|------------------|-----------------------------|
D|-4--4-4-----2---4-|---2----2-3-4--4-4-----2---4-|
A|--------4-4---4---|-4----4------------4-4---4---|
E|------------------|-----------------------------|


G|----------------------------|-------------------------|-6-----|
D|---2----2-3-4--4-4----2---4-|---2-4-----2---6---4-2---|-----2-|
A|-4----4------------4----4---|-4-----4-4---4---4-----4-|---4---|
E|----------------------------|-------------------------|-------|


-----------------------
05:14
OUTRO
******
G|--------------|
D|-4---2----2-3-|Repeat
A|---4----4-----|  And 
E|--------------|    Fade............



ENJOY..........



--------------------------------------------------------------------------
                          Artist - The Lemon Pipers
                         ***************************
                           Song - Through With You
                          *************************
                       Album - Green Tambourine (1968)
                      *********************************
                            Tabbed By - Ayreon77
                           **********************
--------------------------------------------------------------------------
Tuning = Standard             


INTRO
******
G|-----------------|-----------------|-----------------|-----------------|
D|-----4-6-----4-6-|-----4-6-----4-6-|-----4-6-----4-6-|-----4-6-----4-6-|
A|-6-6-----6-6-----|-6-6-----6-6-----|-6-6-----6-6-----|-6-6-----6-6-----|
E|-----------------|-----------------|-----------------|-----------------|


-----------------------------
00:11
VERSE 1
********
G|---------------------------|-----------------|-----------------|
D|-----4-6-4---4-------------|-----4-6-----4-6-|-----4-6-----4-6-|
A|-6-6-------6---6-4-------4-|-6-6-----6-6-----|-6-6-----6-6-----|
E|-------------------4-6-7---|-----------------|-----------------|

00:17
G|---------------------------|-----------------|-----------------|
D|-----4-6-6-4---------------|-----4-6-----4-6-|-----4-6-4---4-6-|
A|-6-6---------6-4-4-------4-|-6-6-----6-6-----|-6-6-------6-----|
E|-------------------4-6-7---|-----------------|-----------------|


-----------------------------
00:24
CHORUS
*******
G|-----------------3--3-3--4--4-4-3-|-----------------3--3-3--4--4-4-3-|
D|-6-4---6-4---4-6------------------|-6-4---6-4---4-6------------------|
A|-----6-----6----------------------|-----6-----6----------------------|
E|----------------------------------|----------------------------------|


G|-----------------3--3-3--4--4-4-3-|----------------------------|
D|-6-4---6-4---4-6------------------|------------------------s---|
A|-----6-----6----------------------|-4--4--4--4--2--2--2--2-\14-|
E|----------------------------------|----------------------------|


-----------------------------
00:39
BREAK
******
G|-----------------|-----------------|-----------------|-----------------|
D|-----4-6-----4-6-|-----4-6-----4-6-|-----4-6-----4-6-|-----4-6-----4-6-|
A|-6-6-----6-6-----|-6-6-----6-6-----|-6-6-----6-6-----|-6-6-----6-6-----|
E|-----------------|-----------------|-----------------|-----------------|


-----------------------------
00:46
VERSE 2
********
G|---------------------------|-----------------|-----------------|
D|-----4-6-4---4-------------|-----4-6-----4-6-|-----4-6-----4-6-|
A|-6-6-------6---6-4-------4-|-6-6-----6-6-----|-6-6-----6-6-----|
E|-------------------4-6-7---|-----------------|-----------------|

00:53
G|---------------------------|-----------------|---------------|
D|-----4-6-4---4-------------|-----4-6-----4-6-|-----4-6-----6-|
A|-6-6-------6---6-4-------4-|-6-6-----6-6-----|-6-6-----6-6---|
E|-------------------4-6-7---|-----------------|---------------|


-----------------------------
01:00
CHORUS
*******
G|-----------------3--3-3--4--4-4-3-|-----------------3--3-3--4--4-4-3-|
D|-6-4---6-4---4-6------------------|-6-4---6-4---4-6------------------|
A|-----6-----6----------------------|-----6-----6----------------------|
E|----------------------------------|----------------------------------|


G|-----------------3--3-3--4--4-4-3-|-----------------------------|
D|-6-4---6-4---4-6------------------|-------------------------s---|
A|-----6-----6----------------------|-4--4--4--4-3-2--2--2--2-\14-|
E|----------------------------------|-----------------------------|


-----------------------------
01:15
SOLO
*****
G|-------------------------|-------------------------|
D|-------------------------|-------------------------|
A|-6~~~~-7~~~~-9~~~~-7~~~~-|-6~~~~-7~~~~-9~~~~-7~~~~-|
E|-------------------------|-------------------------|

01:29
G|-------------------------------------------------------|-----------------|
D|-----------------------------------------------4-6-----|---------4-6-----|
A|-6--6-6--6-6--6-6--6-6--6-6--6-6--6-6--4-5-6-6-----6-6-|-4-5-6-6-----6-6-|
E|-------------------------------------------------------|-----------------|

play this along these lines and add lib, it changes so much it would be too much work to get every note
G|---------------|---------------|---------------|---------------|---------------|---------------|
D|-------4-6-----|-------4-6-----|-------4-6-----|-------4-6-----|-------4-6-----|-------4-6-----|
A|-4-5-6-----6-6-|-4-5-6-----6-6-|-4-5-6-----6-6-|-4-5-6-----6-6-|-4-5-6-----6-6-|-4-5-6-----6-6-|
E|---------------|---------------|---------------|---------------|---------------|---------------|


-----------------------------
08:21
VERSE 3
********
G|---------------------------|-----------------|-----------------|
D|-----4-6-4---4-------------|-----4-6-----4-6-|-----4-6-----4-6-|
A|-6-6-------6---6-4-------4-|-6-6-----6-6-----|-6-6-----6-6-----|
E|-------------------4-6-7---|-----------------|-----------------|

08:28
G|---------------------------|-----------------|---------------|
D|-----4-6-4---4-------------|-----4-6-----4-6-|-----4-6-----6-|
A|-6-6-------6---6-4-------4-|-6-6-----6-6-----|-6-6-----6-6---|
E|-------------------4-6-7---|-----------------|---------------|


-----------------------------
08:35
CHORUS
*******
G|-----------------3--3-3--4--4-4-3-|-----------------3--3-3--4--4-4-3-|
D|-6-4---6-4---4-6------------------|-6-4---6-4---4-6------------------|
A|-----6-----6----------------------|-----6-----6----------------------|
E|----------------------------------|----------------------------------|


G|-----------------3--3-3--4--4-4-3-|------------------------------------------------------------------|
D|-6-4---6-4---4-6------------------|------------------------------------------------------------------|
A|-----6-----6----------------------|-4--4--4--4--2--2--2--2--2--2--4--4--2--2--2--2--2--2--4--4--2~~~-|
E|----------------------------------|------------------------------------------------------------------|


ENJOY........

            
            
Suggest correction
Creating personal tab
Creating personal tab
You can edit any tab online and save it as your Personal.

You can edit, replace or remove any tab part or add personal notes – all changes will be seen only by you.

Personal tabs can be accessed anytime from any device, even offline.
Learn more »
Give kudos to tab author, rate the tab!
1 2 3 4 5
comments
print report bad tab
guest
You may want to rate the tab now too:
select rating
Wanna post a correction for this tab? Suggest correction