Oops, an error
Loading. Please wait.

Green Tambourine chords

version 3
version 3

Whole song

250 views 9 this week
no commentswrite comment
1 2 3 4 5
3 more votes to show rating
add to favorites
×
Save as Personal and add changes to this tab that will be seen only by you. Learn more ›
×
You can save this tab as Personal to edit and correct it or add notes. All changes will be seen only by you. Learn more »
launch autoscroll
font size
0
reset
transpose
0
reset
display chords
guitar tuner
edit
Autoscroll
slow
fast
+/-
esc
set tempo
stop
Author
About this tab version
Mix of tab and chords to have it all. Was this info helpful? Yes No
Strumming
There is no strumming pattern for this song yet. and get +5 IQ
GREEN TAMBOURINE        -       The Lemon Pipers


Intro:
e|---/------/------/--------/---------/------/---------/--------/
B|0--/0-1-3-/3-1-0-/0-------/------0--/0-1-3-/10-8-6-5-/3-2-1-0-/
G|0--/0-2-4-/4-2-0-/--3-2-0-/0-2-3----/0-2-4-/10-9-7-5-/4-3-2-0-/
D|---/------/------/0-------/------0--/------/---------/--------/
A|---/------/------/--4-3-2-/2-3-4----/------/---------/--------/
E|---/------/------/--------/---------/------/---------/--------/

GD - CG -  
D - C 

G                    D        C           G        D - C                     
   Drop your silver    in my     tambou -     rine. 
G                   D          C        G        D - C                       
   Help a poor man    build a    pretty    dream. 
Cm                                  G        D - C                      
    Give me pennies I'll take any -    thing. 
     Bb                Fm /                                         
Now     listen while I        play...
                  G        D - C - G - D - C                                    
My green tambou -    rine 

G                    D         C          G        D - C                     
   Watch the jingle    jangle    start to    chime. 
G                      D       C          G       D - C                      
   Reflections of the    music    that is    mine 
Cm                                       G        D - C                  
    When you toss a coin you'll hear it     sing. 
     Bb                 Fm /                                        
Now      listen while I       play...
                   G         D - C - G - D - C                                   
My green tambou -     rine 


Break:
e|---/------/------/--------/---------/------/---------/--------/
B|0--/0-1-3-/3-1-0-/0-------/------0--/0-1-3-/10-8-6-5-/3-2-1-0-/
G|0--/0-2-4-/4-2-0-/--3-2-0-/0-2-3----/0-2-4-/10-9-7-5-/4-3-2-0-/
D|---/------/------/0-------/------0--/------/---------/--------/
A|---/------/------/--4-3-2-/2-3-4----/------/---------/--------/
E|---/------/------/--------/---------/------/---------/--------/

GD - CGD - C 

G               D             C            G       D - C                      
   Drop a dime    before you     walk a -     way. 
G               D              C          G       D - C                       
   Any song you     want I'll     gladly    play. 
Cm                       G          D - C                               
    Money feeds my music    machine. 
     Bb                 Fm /                                        
Now      listen while I       play...
                   G          D - C - G - D - C                                  
My green tambou -     rine 

Break:
e|---/------/---------/--------/
B|0--/0-1-3-/10-8-6-5-/3-2-1-0-/
G|0--/0-2-4-/10-9-7-5-/4-3-2-0-/    
D|---/------/---------/--------/
A|---/------/---------/--------/
E|---/------/---------/--------/


Bb               Fm /                                               
    Listen and I       play...


Outro:
(Percussion)//

            
            
Suggest correction
Creating personal tab
Creating personal tab
You can edit any tab online and save it as your Personal.

You can edit, replace or remove any tab part or add personal notes – all changes will be seen only by you.

Personal tabs can be accessed anytime from any device, even offline.
Learn more »
Give kudos to tab author, rate the tab!
1 2 3 4 5
comments
print report bad tab
guest
You may want to rate the tab now too:
select rating
Wanna post a correction for this tab? Suggest correction