Oops, an error
Loading. Please wait.

How Lucky Am I chords

2,866 views 171 this week
1 commentread comment
1 2 3 4 5
x 7
add to favorites
×
Save as Personal and add changes to this tab that will be seen only by you. Learn more ›
×
You can save this tab as Personal to edit and correct it or add notes. All changes will be seen only by you. Learn more »
launch autoscroll
font size
0
reset
transpose
0
reset
simplify chords
display chords
guitar tuner
edit
Autoscroll
slow
fast
+/-
esc
set tempo
stop
Strumming
There is no strumming pattern for this song yet. and get +5 IQ
---------------------------------------------------------------------------
The difficult chord in the second half of the verse is a C diminished with
a B bass which is difficult to replicate on a guitar, so instead you may
play the regular C diminished as shown below (or even more simply play a
regular B chord).

---------------------------------------------------------------------------
CHORDS

              E-A-D-G-B-e
C#m7          x-4-6-4-5-4
F#m7          2-4-2-2-5-2
B7sus4        x-2-4-2-5-2
G9            3-5-3-4-3-5
Cdim/B        x-2-4-5-4-2 = Baddb9
Cdim          x-x-4-5-4-2
Am6           x-0-2-2-1-2

---------------------------------------------------------------------------
[Intro]
   E     C#m7  F#m7  B7     E     C#m7  F#m7  B7sus4
e|-0-0---4-4---2-2---2-2--|-0-0---4-4---2-2---2----|
B|-0-0---5-5---2-2---0-0--|-0-0---5-5---5-5---5----|
G|-1-1---4-4---2-2---2-2--|-1-1---4-4---2-2---2----|
D|-2-2-1-6-6---2-2---1-1--|-2-2-1-6-6---2-2---4----|
A|-2-2---4-4---4-4---2-2--|-2-2---4-4---4-4---2----|
E|-0-0---------2-2--------|-0-0---------2-2--------|


[Verse]
       E               C#m7 
Well I know I might be wrong

F#m7    B7sus4              G9
And the vows I haven't made may be wasted

F#m7     B7          E        C7        F#m7   B7
Copy and pasted from false memories

      E      C#m7    F#m7   B7  
And I very well could be expecting

     G9
Too much from a lover

  F#m7       B7         E          C7
I needlessly suffer for soft yesterdays

F#m7       Cdim/B      G#7          C#m7
And lovely laying on a porch in the rain

F#m7            B7              Em             Am6   C   G
When faced with adverse circumstances it's the same


[Chorus]

G           Am          E
Still you love me, you say so

  F#m     B7    E   G           Am         E
Enough to recognize that you're lucky, you think so

F#m        B7    E    C#m7  F#m7  B7
But how lucky am I?

E C#m7 F#m7 B7

[Verse]

     E           C#m7
If I turn it on it's head 

F#m7     B7               G9
will the blood rush to it and make me dizzy

F#m7       B7          E            C7         F#m7   B7
Or will it give me the truth that I crave?


       E       C#m7 F#m7         B7
When I post my 95       it comes out of me

     G9                   F#m7     B7   
Like rags on a scholar, a dog on a collar

    E         C7
For I make no sense

F#m7        Cdim/B              G#7          C#m7 
Afraid that hurtful words could fill my last breath

F#m7      B7             Em          Am6   C   G
A million memories could not sew my chest


[Chorus]
G       Am            E
Still I hurt you, you say so

F#m       B7       E
Enough to make you cry

G         Am
Still you don't know

   E             F#m    B7     E
I don't show the reason for my lies

[Outro]

    E            C#m7       F#m7      B7sus4  B7            E
e|--0----0-------4----4------2----2------2----2----|   |----0----|
B|--0----0-------5----5------5----5------5----4----|   |----0----|
G|--1----1-------4----4------2----2------2----2----|x4 |----1----|
D|--2----2---1---6----6------2----2------4----4----|   |----2----|
A|--2----2-------4----4------4----4------2----2----|   |----2----|
E|--0----0-------------------2----2----------------|   |----0----|

Suggest correction
Creating personal tab
Creating personal tab
You can edit any tab online and save it as your Personal.

You can edit, replace or remove any tab part or add personal notes – all changes will be seen only by you.

Personal tabs can be accessed anytime from any device, even offline.
Learn more »
comments
print report bad tab
1 comment total.
0 reply
dimitrisvov 210 Feb 18, 2017 08:57 AM

So nice tab, thanks for submitting!

guest
You may want to rate the tab now too:
select rating
Wanna post a correction for this tab? Suggest correction