Oops, an error
Loading. Please wait.

Best Of Me bass

405 views 1 this week
no commentswrite comment
1 2 3 4 5
3 more votes to show rating
add to favorites
×
Save as Personal and add changes to this tab that will be seen only by you. Learn more ›
×
You can save this tab as Personal to edit and correct it or add notes. All changes will be seen only by you. Learn more »
launch autoscroll
font size
0
reset
guitar tuner
edit
Autoscroll
slow
fast
+/-
esc
set tempo
stop
Artist: The Letter Black
Song: Best Of Me
Album: Hanging On By a Thread

I play this song on a 5 string, but you can play it on a four string by tuning to BEAD, 
tuning a half step down, or drop D would be cool too.

Intro: Orchestral type thing and acoustic guitar only

Verse 1: "If I could find yesterday"

G-------------------------------------------------------------------|
D-------------------------------------------------------------------|
A-------------------------------------------------------------------| 3x
E-----------3-3----6-6----------------------------------------------|
B----4-4------------------6-6---------------------------------------|

Pre-chorus: "I swear, you're the only reason I keep breathing"
No bass in Pre-chorus

Chorus: "Finally I'm worth it, though I'm not perfect"

G-------------------------------------------------------------------|
D-------------------------------------------------------------------|
A-------------------------------------------------------------------| 2x
E----3-3-----------6-6----------------------------------------------|
B-----------4-4-----------6-6---------------------------------------|

2nd part of chorus: "But I know another way to show"

G-------------------------------------------------------------------|
D-------------------------------------------------------------------|
A-------------------------------------------------------------------|
E-----------6-6-----------8-8-8-8-----------------------------------|
B----4-4-----------6-6----------------------------------------------|

3rd part of chorus: "You're all that I'll ever need"

G-------------------------------------------------------------------|
D-------------------------------------------------------------------|
A-------------------------------------------------------------------| 2x
E----3-3------------------------------------------------------------|
B-----------6-6----4-4--4-4-----------------------------------------|
Only play two of the 4's the second time and they carry into the post-chorus

Post-chorus:

G-------------------------------------------------------------------|
D-------------------------------------------------------------------|
A-------------------------------------------------------------------|
E----3-3----6-6-----------------------------------------------------|
B------------------6-6----------------------------------------------|

Post-chorus no bass

Verse 2 same as verse 1

Chorus 2 same as first chorus

Bridge: "Oh, I know I believe it"

G-------------------------------------------------------------------|
D-------------------------------------------------------------------|
A-------------------------------------------------------------------| 3x
E-----------6-6-----------8-8-8-8-----------------------------------|
B----4-4-----------6-6----------------------------------------------|

Post-bridge no bass

Chorus 2x

That's all there is to it. God bless :)

            
            
Suggest correction
Creating personal tab
Creating personal tab
You can edit any tab online and save it as your Personal.

You can edit, replace or remove any tab part or add personal notes – all changes will be seen only by you.

Personal tabs can be accessed anytime from any device, even offline.
Learn more »
Give kudos to tab author, rate the tab!
1 2 3 4 5
comments
print report bad tab
guest
You may want to rate the tab now too:
select rating
Wanna post a correction for this tab? Suggest correction