Oops, an error
Loading. Please wait.

Barbarians tab

1,243 views 9 this week
2 commentsread comments
1 2 3 4 5
x 3
add to favorites
×
Save as Personal and add changes to this tab that will be seen only by you. Learn more ›
×
You can save this tab as Personal to edit and correct it or add notes. All changes will be seen only by you. Learn more »
launch autoscroll
font size
0
reset
how to read this tab
guitar tuner
edit
Autoscroll
slow
fast
+/-
esc
set tempo
stop
-------------------------------------------------------------------------------
                            BARBARIANS - THE LIBERTINES
-------------------------------------------------------------------------------
Tabbed by:Charlie Marriott
E-mail: marriottcharlie1@gmail.com

Tuning: Standard
Hi, This is one of the new tunes from 'Anthems for a Doomed Youth'.
This is my first try tabbing and I made some of it by ear. Sorry, if some of it is wrong but, i think like
90% is correct.
Cheers.

Main Riff/intro:
e|--------------------------------------------------------------------|
B|--------------------------I like to bend the 5th fret a tiny bit----|
G|-----------2--------------4-------------5--5--5--4--2---------------|
D|----4--4-------4---4--4------4---4--4-------------------------------| 
A|--------------------------------------------------------------------|
E|--------------------------------------------------------------------|


Verse 1:
                     F#m                F#m
This ones for your heart and for your mind   
                      E
the melody is in 4 4 time
                               F#m
You get it right and it rings true.
                                F#m                              E
And now they're coming out in droves all of the _____ to the shows,
                                        F#m
cause there is nothing, nothing you can do. 

Chorus:
   A                          F#m       A                          F#m
All i wanna do is scream out loud and have it off with a mental crowd,
               Bm       E       A         A             E           F#m
cause i believe somehow, The world's fucked but it won't get me down.


F#m F#m B# B# D D E E  (Listen to the end of the chorus and you will see which part this is).

Main riff x 4


Verse 2: (Same timings as Verse 1, you will pick it up pretty quickly)
Here is to the thug you can't cultivate,             
working his scrubs by the prison gate,
your mum, your son in law and all your lonely nights too oh.
They boxed off your heart, boxed off your mind, 
so collect your food in 4 4 time;
tick off your lonely nights to oh.


Pre-chorus:
(Not sure about the lyrics but, here are the chords)
A, D , E
then this little riff:
e|---------------------------------------------------------------------------|
B|-------7--9--7-------------------------------------------------------------|
G|---9------------9----------------------------------------------------------|
D|---------------------------------------------------------------------------| 
A|---------------------------------------------------------------------------|
E|---------------------------------------------------------------------------|
then more chords:
A, D, E, F 


Chorus:
A                          F#m       A                          F#m
All i wanna do is scream out loud and have it off with a mental crowd
 Bm       E
cause i believe somehow...
A                          F#m       A                          F#m
All i wanna do is scream out loud and have it off with a mental crowd
         Bm       E       A         A             E           F#m
cause i believe somehow, The world's fucked but it won't get me down.

F#m F#m B# B# D D E E

(Improvising section or just play the main riff a few times)


Chorus:
A                          F#m       A                          F#m
All i wanna do is scream out loud and have it off with a mental crowd
 Bm       E
cause i believe somehow...
A                          F#m       A                          F#m
All i wanna do is scream out loud and have it off with a mental crowd
          Bm       E       A         A             E           F#m
cause i believe somehow, The world's fucked but it won't get me down.


F#m F#m B# B# D D E E

Main riff x 4 





************************************

| /   slide up
| \   slide down
| h   hammer-on
| p   pull-off
| ~   vibrato
| +   harmonic
| x   Mute note
| b   Bend
| pb  Pre-bend
| br  Bend release
| pbr Pre-bend release
| brb Bend release bend

************************************
Suggest correction
Creating personal tab
Creating personal tab
You can edit any tab online and save it as your Personal.

You can edit, replace or remove any tab part or add personal notes – all changes will be seen only by you.

Personal tabs can be accessed anytime from any device, even offline.
Learn more »
Give kudos to tab author, rate the tab!
1 2 3 4 5
comments
print report bad tab
2 comments total.
0 reply
kjt1981 30 Oct 02, 2015 03:27 AM

Hi mate. I think the chord on the chorus is an F#m rather than an F#. Also I think the tab should be:

Main Riff/intro:
e|--------------------------------------------------------------------|
B|--------------------------------------------------------------------|
G|-----------2--------------4-------------5--5--5--4--2---------------|
D|----4--4-------4---4--4------4---4--4-------------------------------|
A|--------------------------------------------------------------------|
E|--------------------------------------------------------------------|

so the riff opens on the D string, playing the F# note, rather than the A string, playing the C#

guest
You may want to rate the tab now too:
select rating
Wanna post a correction for this tab? Suggest correction