Oops, an error
Loading. Please wait.

Belly Of The Beast Bass Tab

16 views 1 this week
no commentswrite comment
1 2 3 4 5
3 more votes to show rating
add to favorites
launch autoscroll
font size
0
reset
guitar tuner
Autoscroll
slow
fast
+/-
esc
set tempo
stop
Help us to improve Ultimate-Guitar.com Take our survey!
×
[Intro]

G|----------------------------------------------------|------------------------------------------------------|
D|-----------------------2----------------------------|-----------------------2------------------------------|
A|---------------------2------------------------------|---------------------2--------------------------------|
E|-0--0-0--0-0--0-0--0----0--0-0--0-0-3-3-3-5-5-5-7-7-|-0--0-0--0-0--0-0--0-----0--0-0--0-0-3-3-3-5-5-5-7-7--|

[Verse]

G|-----------------------------------------------|----------------------------------|
D|-----------------------2-----------------------|----------------------------------|
A|---------------------2-------------------------|----------------------------------|
E|-0--0-0--0-0--0-0--0-----0--0-0--0-0--0-0--0-0-|-0-0--5-5-5-5-5-5-5-3-3-3-3-2-2-2-|

G|----------------------------------------------------|-------------------------------------------------|
D|-----------------------2----------------------------|---------------------------------2---------------|
A|---------------------2------------------------------|-------------------------------2-----------------|
E|-0--0-0--0-0--0-0--0-----0--0-0--0-0--0-0--0-0--0-0-|-3-3-3-3-2-2-2-2-0-0-0-0-0-0-0-----0-0-0-0-0--0--|

G|----------------------------------------------------|------------------------------------------------------|
D|-----------------------2----------------------------|-------------------------------------------2----------|
A|---------------------2------------------------------|-----------------------------------------2------------|
E|-0--0-0--0-0--0-0--0-----0--0-0--0-0--0-0--0-0--0-0-|-5-5-5-5-5-5-5-3-3-3-3-2-2-2-0-0-0-0-0-0----0-0-0-0--0|

G|----------------------------------------------------|------------------------------------------------------|
D|-----------------------2----------------------------|-------------------------------------------2----------|
A|---------------------2------------------------------|-----------------------------------------2------------|
E|-0--0-0--0-0--0-0--0-----0--0-0--0-0--0-0--0-0--0-0-|-5-5-5-5-5-5-5-3-3-3-3-2-2-2-0-0-0-0-0-0----0-0-0-0--0|

G|-------------------------------------------------|
D|---------------------------------2---------------|
A|-------------------------------2-----------------|
E|-3-3-3-3-2-2-2-2-0-0-0-0-0-0-0-----0-0-0-0-0--0--|

[Chorus]

G|-----------------------------------------------------|
D|-----------------------------------------------------|
A|-----------------------------------------------------|
E|-0-0--7-7--5---5-7-7-5--0-0--7-7--5---5-7-7-5--------|

G|-----------------------------------------------------|
D|-----------------------------------------------------|
A|-----------------------------------------------------|
E|-0-0--7-7--5---5-7-7-5--0-0--7-7--5---3-3-2-2-0------|

G|----------------------------------------------------|------------------------------------------------------|
D|-----------------------2----------------------------|-----------------------2------------------------------|
A|---------------------2------------------------------|---------------------2--------------------------------|
E|-0--0-0--0-0--0-0--0----0--0-0--0-0-3-3-3-5-5-5-7-7-|-0--0-0--0-0--0-0--0-----0--0-0--0-0-3-3-3-5-5-5-7-7--|

[Verse]

G|-----------------------------------------------|----------------------------------|
D|-----------------------2-----------------------|----------------------------------|
A|---------------------2-------------------------|----------------------------------|
E|-0--0-0--0-0--0-0--0-----0--0-0--0-0--0-0--0-0-|-0-0--5-5-5-5-5-5-5-3-3-3-3-2-2-2-|

G|----------------------------------------------------|-------------------------------------------------|
D|-----------------------2----------------------------|---------------------------------2---------------|
A|---------------------2------------------------------|-------------------------------2-----------------|
E|-0--0-0--0-0--0-0--0-----0--0-0--0-0--0-0--0-0--0-0-|-3-3-3-3-2-2-2-2-0-0-0-0-0-0-0-----0-0-0-0-0--0--|

G|----------------------------------------------------|------------------------------------------------------|
D|-----------------------2----------------------------|-------------------------------------------2----------|
A|---------------------2------------------------------|-----------------------------------------2------------|
E|-0--0-0--0-0--0-0--0-----0--0-0--0-0--0-0--0-0--0-0-|-5-5-5-5-5-5-5-3-3-3-3-2-2-2-0-0-0-0-0-0----0-0-0-0--0|

G|-------------------------------------------------|
D|---------------------------------2---------------|
A|-------------------------------2-----------------|
E|-3-3-3-3-2-2-2-2-0-0-0-0-0-0-0-----0-0-0-0-0--0--|

[Bridge]

G|-----------------------------------------|
D|-----------------------------------------|
A|-4----4-6-7------------------------------|
E|---------------4-----5-----5--3-2-0------|

G|----------------------------------------------------|------------------------------------------------------|
D|-----------------------2----------------------------|-----------------------2------------------------------|
A|---------------------2------------------------------|---------------------2--------------------------------|
E|-0--0-0--0-0--0-0--0----0--0-0--0-0-3-3-3-5-5-5-7-7-|-0--0-0--0-0--0-0--0-----0--0-0--0-0-0-0--------------|

G|-----------------------------------------------------|
D|-----------------------------------------------------|
A|-----------------------------------------------------|
E|-0-0--7-7--5---5-7-7-5--0-0--7-7--5---3-3-2-2-0------|

G|----------------------------------------------------|------------------------------------------------------|
D|-----------------------2----------------------------|-----------------------2------------------------------|
A|---------------------2------------------------------|---------------------2--------------------------------|
E|-0--0-0--0-0--0-0--0----0--0-0--0-0-3-3-3-5-5-5-7-7-|-0--0-0--0-0--0-0--0-----0--0-0--0-0-3-3-3-5-5-5-7-7--|

[Outro]

G|--------------------------------------|
D|--------------------------------------|
A|-7---------------------------7--------|
E|-------7-----7-6-5---5-7---7----------|

G|----------------------------------------------------|------------------------------------------------------|
D|-----------------------2----------------------------|-----------------------2------------------------------|
A|---------------------2------------------------------|---------------------2--------------------------------|
E|-0--0-0--0-0--0-0--0----0--0-0--0-0-3-3-3-5-5-5-7-7-|-0--0-0--0-0--0-0--0-----0--0-0--0-0-3-3-3-5-5-5-7-7--|

G|----------------------------------------------------|------------------------------------------------------|
D|-----------------------2----------------------------|-----------------------2------------------------------|
A|---------------------2------------------------------|---------------------2--------------------------------|
E|-0--0-0--0-0--0-0--0----0--0-0--0-0-3-3-3-5-5-5-7-7-|-0--0-0--0-0--0-0--0-----0--0-0--0-0-3-3-3-5-5-5-7-7--|

G|----------------------------------------------------|------------------------------------------------------|
D|-----------------------2----------------------------|-----------------------2------------------------------|
A|---------------------2------------------------------|---------------------2--------------------------------|
E|-0--0-0--0-0--0-0--0----0--0-0--0-0-3-3-3-5-5-5-7-7-|-0--0-0--0-0--0-0--0-----0--0-0--0-0-3-3-3-5-5-5-7-7--|

G|----------------------------------------------------|------------------------------------------------------|
D|-----------------------2----------------------------|-----------------------2------------------------------|
A|---------------------2------------------------------|---------------------2--------------------------------|
E|-0--0-0--0-0--0-0--0----0--0-0--0-0-3-3-3-5-5-5-7-7-|-0--0-0--0-0--0-0--0-----0--0-0--0-0-3-3-3-5-5-5-7-7-0|
Suggest correction
Give kudos to tab author, rate the tab!
1 2 3 4 5
comments
print report bad tab
guest
You may want to rate the tab now too:
select rating
Wanna post a correction for this tab? Suggest correction