Oops, an error
Loading. Please wait.

Boys In The Band tab

version 3
version 3

Whole song

Interactive

2,184 views 1 this week
no commentswrite comment
1 2 3 4 5
1 last vote to show rating
add to favorites
×
Save as Personal and add changes to this tab that will be seen only by you. Learn more ›
×
You can save this tab as Personal to edit and correct it or add notes. All changes will be seen only by you. Learn more »
launch autoscroll
font size
0
reset
how to read this tab
guitar tuner
edit
Autoscroll
slow
fast
+/-
esc
set tempo
stop
Difficulty
intermediate
Boys in the Band
The Libertines

intro

e|--------8---8--8--|--------8----8--8---8--8---|
B|--------10--10-10-|--------10---10-10--10-10--|
G|2--2----10--10-10-|2--2----10---10-10--10-10--|
D|3--3----10--10-10-|3--3----10---10-10--10-10--|
A|3--3----8---8--8--|3--3----8----8--8---8--8---|
E|1--1--------------|1--1-----------------------|

e|--------8---8--8--|--------8----8--8---8--8---|
B|--------10--10-10-|--------10---10-10--10-10--|
G|2--2----10--10-10-|2--2----10---10-10--10-10--|
D|3--3----10--10-10-|3--3----10---10-10--10-10--|
A|3--3----8---8--8--|3--3----8----8--8---8--8---|
E|1--1--------------|1--1-----------------------|

--------
VERSE 1:

e|--------------------|--------------------|--------------------|
B|--------------------|--------------------|--------------------|
G|2--2---2-2-2-2--2-2-|2--2---2-2-2-2--2-2-|2--2---2-2-2-2--2-2-|
D|3--3---3-3-3-3--3-3-|3--3---3-3-3-3--3-3-|3--3---3-3-3-3--3-3-|
A|3--3---3-3-3-3--3-3-|3--3---3-3-3-3--3-3-|3--3---3-3-3-3--3-3-|
E|1--1---1-1-1-1--1-1-|1--1---1-1-1-1--1-1-|1--1---1-1-1-1--1-1-|

e|-----------------|-----------------|-----------------|-------------------|
B|-----------------|5-5-5-5--5-5-5-5-|-----------------|6~~~5~~~4~~~~~~~~~-|
G|7-7-7-7--7-7-7-7-|5-5-5-5--5-5-5-5-|6-6-6-6--6-6-6-6-|7~~~6~~~5~~~~~~~~~-|
D|8-8-8-8--8-8-8-8-|5-5-5-5--5-5-5-5-|7-7-7-7--7-7-7-7-|7~~~6~~~5~~~~~~~~~-|
A|8-8-8-8--8-8-8-8-|3-3-3-3--3-3-3-3-|7-7-7-7--7-7-7-7-|5~~~4~~~3~~~~~~~~~-|
E|6-6-6-6--6-6-6-6-|-----------------|5-5-5-5--5-5-5-5-|-------------------|

                          It's all so rudimentary
e|----------------|------|------------------------|------------------------|
B|----------------|5~~~~-|------------------------|------------------------|
G|4-4-4--4-4-4--4-|5~~~~-|------------------------|------------------------|
D|5-5-5--5-5-5--5-|5~~~~-|------------------------|------------------------|
A|5-5-5--5-5-5--5-|3~~~~-|------------------------|------------------------|
E|3-3-3--3-3-3--3-|------|------------------------|------------------------|


--------
VERSE 2:

e|--------8---8--8--|--------8----8--8---8--8---|
B|--------10--10-10-|--------10---10-10--10-10--|
G|2--2----10--10-10-|2--2----10---10-10--10-10--|
D|3--3----10--10-10-|3--3----10---10-10--10-10--|
A|3--3----8---8--8--|3--3----8----8--8---8--8---|
E|1--1--------------|1--1-----------------------|

e|--------8---8--8--|--------8----8--8---8--8---|
B|--------10--10-10-|--------10---10-10--10-10--|
G|2--2----10--10-10-|2--2----10---10-10--10-10--|
D|3--3----10--10-10-|3--3----10---10-10--10-10--|
A|3--3----8---8--8--|3--3----8----8--8---8--8---|
E|1--1--------------|1--1-----------------------|

e|--------------------|--------------------|--------------------|
B|--------------------|--------------------|--------------------|
G|2--2---2-2-2-2--2-2-|2--2---2-2-2-2--2-2-|2--2---2-2-2-2--2-2-|
D|3--3---3-3-3-3--3-3-|3--3---3-3-3-3--3-3-|3--3---3-3-3-3--3-3-|
A|3--3---3-3-3-3--3-3-|3--3---3-3-3-3--3-3-|3--3---3-3-3-3--3-3-|
E|1--1---1-1-1-1--1-1-|1--1---1-1-1-1--1-1-|1--1---1-1-1-1--1-1-|

e|-----------------|-----------------|-----------------|-------------------|
B|-----------------|5-5-5-5--5-5-5-5-|-----------------|6~~~5~~~4~~~~~~~~~-|
G|7-7-7-7--7-7-7-7-|5-5-5-5--5-5-5-5-|6-6-6-6--6-6-6-6-|7~~~6~~~5~~~~~~~~~-|
D|8-8-8-8--8-8-8-8-|5-5-5-5--5-5-5-5-|7-7-7-7--7-7-7-7-|7~~~6~~~5~~~~~~~~~-|
A|8-8-8-8--8-8-8-8-|3-3-3-3--3-3-3-3-|7-7-7-7--7-7-7-7-|5~~~4~~~3~~~~~~~~~-|
E|6-6-6-6--6-6-6-6-|-----------------|5-5-5-5--5-5-5-5-|-------------------|

                          It's all so rudimentary
e|----------------|------|------------------------|------------------------|
B|----------------|5~~~~-|------------------------|------------------------|
G|4-4-4--4-4-4--4-|5~~~~-|------------------------|------------------------|
D|5-5-5--5-5-5--5-|5~~~~-|------------------------|------------------------|
A|5-5-5--5-5-5--5-|3~~~~-|------------------------|------------------------|
E|3-3-3--3-3-3--3-|------|------------------------|------------------------|

Pre-Chorus

e|-----------------|-----------------|-----------------|-----------------|
B|-----------------|-----------------|-----------------|-----------------|
G|-----------------|2-2-2-2--2-2-2-2-|-----------------|3---3----2---2---|
D|3-3-3-3--3-3-3-3-|-----------------|-----------------|-----------------|
A|-----------------|-----------------|5-5-5-5--5-5-5-5-|-----------------|
E|-----------------|-----------------|-----------------|-----------------|

Chorus

e|-----------------|-----------------|-----------------|-----------------|
B|-----------------|-----------------|-----------------|-----------------|
G|-----------------|2---2---2---2----|3---3---3---3----|5-5-5-5--5-5-5-5-|
D|3---3---3---3----|-----------------|-----------------|-----------------|
A|-----------------|-----------------|-----------------|-----------------|
E|-----------------|-----------------|-----------------|-----------------|

e|-----------------|-----------------|-----------------|-----------------|
B|-----------------|-----------------|-----------------|-----------------|
G|-----------------|2-2-2-2--2-2-2-2-|3-3-3-3--3-3-3-3-|5-5-5-5--5-5-5-5-|
D|3-3-3-3--3-3-3-3-|-----------------|-----------------|-----------------|
A|-----------------|-----------------|-----------------|-----------------|
E|-----------------|-----------------|-----------------|-----------------|

e|-----------------|-----------------|
B|-----------------|-----------------|
G|-----------------|-----------------|
D|3-3-3-3--3-3-3-3-|-----------------|
A|-----------------|-----------------|
E|-----------------|-----------------|

--------
VERSE 3:

e|--------8---8--8--|--------8----8--8---8--8---|--------8---8--8--|
B|--------10--10-10-|--------10---10-10--10-10--|--------10--10-10-|
G|2--2----10--10-10-|2--2----10---10-10--10-10--|2--2----10--10-10-|
D|3--3----10--10-10-|3--3----10---10-10--10-10--|3--3----10--10-10-|
A|3--3----8---8--8--|3--3----8----8--8---8--8---|3--3----8---8--8--|
E|1--1--------------|1--1-----------------------|1--1--------------|

e|--------------------|--------------------|--------------------|
B|--------------------|--------------------|--------------------|
G|2--2---2-2-2-2--2-2-|2--2---2-2-2-2--2-2-|2--2---2-2-2-2--2-2-|
D|3--3---3-3-3-3--3-3-|3--3---3-3-3-3--3-3-|3--3---3-3-3-3--3-3-|
A|3--3---3-3-3-3--3-3-|3--3---3-3-3-3--3-3-|3--3---3-3-3-3--3-3-|
E|1--1---1-1-1-1--1-1-|1--1---1-1-1-1--1-1-|1--1---1-1-1-1--1-1-|

e|-----------------|-----------------|-----------------|-------------------|
B|-----------------|5-5-5-5--5-5-5-5-|-----------------|6~~~5~~~4~~~~~~~~~-|
G|7-7-7-7--7-7-7-7-|5-5-5-5--5-5-5-5-|6-6-6-6--6-6-6-6-|7~~~6~~~5~~~~~~~~~-|
D|8-8-8-8--8-8-8-8-|5-5-5-5--5-5-5-5-|7-7-7-7--7-7-7-7-|7~~~6~~~5~~~~~~~~~-|
A|8-8-8-8--8-8-8-8-|3-3-3-3--3-3-3-3-|7-7-7-7--7-7-7-7-|5~~~4~~~3~~~~~~~~~-|
E|6-6-6-6--6-6-6-6-|-----------------|5-5-5-5--5-5-5-5-|-------------------|

                          It's all so rudimentary
e|----------------|------|------------------------|------------------------|
B|----------------|5~~~~-|------------------------|------------------------|
G|4-4-4--4-4-4--4-|5~~~~-|------------------------|------------------------|
D|5-5-5--5-5-5--5-|5~~~~-|------------------------|------------------------|
A|5-5-5--5-5-5--5-|3~~~~-|------------------------|------------------------|
E|3-3-3--3-3-3--3-|------|------------------------|------------------------|

Pre-Chorus

e|-----------------|-----------------|-----------------|-----------------|
B|-----------------|-----------------|-----------------|-----------------|
G|-----------------|2-2-2-2--2-2-2-2-|-----------------|3---3----2---2---|
D|3-3-3-3--3-3-3-3-|-----------------|-----------------|-----------------|
A|-----------------|-----------------|5-5-5-5--5-5-5-5-|-----------------|
E|-----------------|-----------------|-----------------|-----------------|

Chorus

e|-----------------|-----------------|-----------------|-----------------|
B|-----------------|-----------------|-----------------|-----------------|
G|-----------------|2---2---2---2----|3---3---3---3----|5-5-5-5--5-5-5-5-|
D|3---3---3---3----|-----------------|-----------------|-----------------|
A|-----------------|-----------------|-----------------|-----------------|
E|-----------------|-----------------|-----------------|-----------------|

e|-----------------|-----------------|-----------------|-----------------|
B|-----------------|-----------------|-----------------|-----------------|
G|-----------------|2-2-2-2--2-2-2-2-|3-3-3-3--3-3-3-3-|5-5-5-5--5-5-5-5-|
D|3-3-3-3--3-3-3-3-|-----------------|-----------------|-----------------|
A|-----------------|-----------------|-----------------|-----------------|
E|-----------------|-----------------|-----------------|-----------------|

e|-----------------|------------|
B|-----------------|6--5--4--3--|
G|-----------------|6--5--4--3--|
D|3-3-3-3--3-3-3-3-|6--5--4--3--|
A|-----------------|4--3--2--1--|
E|-----------------|------------|

Bridge

e|---1--1-x-/-11-x-x-11-x-x-x-|---1--1-x-/-11-x-11-x-x-x-|
B|---1--1-x-/-13-x-x-13-x-x-x-|---1--1-x-/-13-x-13-x-x-x-|
G|---2--2-x-/-13-x-x-13-x-x-x-|---2--2-x-/-12-x-12-x-x-x-|
D|---3--3-x-/-13-x-x-13-x-x-x-|---3--3-x-/-13-x-13-x-x-x-|
A|---3--3-x-/-11-x-x-11-x-x-x-|---3--3-x-/-13-x-13-x-x-x-|
E|---1--1-x-/-11-x-x-11-x-x-x-|---1--1-x-/-11-x-11-x-x-x-|

e|---1--1-x-/-11-x-x-11-x-x-x-|---1--1-x-/-11-x-11-x-x-x-|
B|---1--1-x-/-13-x-x-13-x-x-x-|---1--1-x-/-13-x-13-x-x-x-|
G|---2--2-x-/-13-x-x-13-x-x-x-|---2--2-x-/-12-x-12-x-x-x-|
D|---3--3-x-/-13-x-x-13-x-x-x-|---3--3-x-/-13-x-13-x-x-x-|
A|---3--3-x-/-11-x-x-11-x-x-x-|---3--3-x-/-13-x-13-x-x-x-|
E|---1--1-x-/-11-x-x-11-x-x-x-|---1--1-x-/-11-x-11-x-x-x-|

Solo

e|--------------------------------------------------|
B|---13----13---------------------------------------|
G|---15b17-15b17--15-15-13--------13----13----13----|
D|--------------------------15~~~~---15----15----15-|
A|--------------------------------------------------|
E|--------------------------------------------------|

e|-------------------------------------|
B|-------------------------------------|
G|15p14p13-15p14p13-15p14p13-15p14p13--|
D|-------------------------------------|
A|-------------------------------------|
E|-------------------------------------|

e|--------------------------------------------------------------|
B|---13----13--13----13--13----13-13-13-13-13-13-13-------------|
G|---15b17-----15b17-----15b17----15-15-15-15-15-15--13~~~~/0---|
D|--------------------------------------------------------------|
A|--------------------------------------------------------------|
E|--------------------------------------------------------------|

Bridge 2

e|-----------------|-----------------|
B|8-8-8-8--8-8-8-8-|10~~~~-----------|
G|8-8-8-8--8-8-8-8-|10~~~~-----------|
D|8-8-8-8--8-8-8-8-|10~~~~-----------|
A|6-6-6-6--6-6-6-6-|8~~~~~-----------|
E|-----------------|-----------------|

Pre-Chorus

e|-----------------|-----------------|-----------------|-----------------|
B|-----------------|-----------------|-----------------|-----------------|
G|-----------------|2-2-2-2--2-2-2-2-|-----------------|3---3----2---2---|
D|3-3-3-3--3-3-3-3-|-----------------|-----------------|-----------------|
A|-----------------|-----------------|5-5-5-5--5-5-5-5-|-----------------|
E|-----------------|-----------------|-----------------|-----------------|

Final Chorus

e|-----------------|-----------------|-----------------|-----------------|
B|-----------------|-----------------|-----------------|-----------------|
G|-----------------|2---2---2---2----|3---3---3---3----|5---5---5---5----|
D|3---3---3---3----|-----------------|-----------------|-----------------|
A|-----------------|-----------------|-----------------|-----------------|
E|-----------------|-----------------|-----------------|-----------------|

e|-----------------|-----------------|-----------------|-----------------|
B|-----------------|-----------------|-----------------|-----------------|
G|-----------------|2---2---2---2----|3---3---3---3----|5-5-5-5--5-5-5-5-|
D|3---3---3---3----|-----------------|-----------------|-----------------|
A|-----------------|-----------------|-----------------|-----------------|
E|-----------------|-----------------|-----------------|-----------------|

e|-----------------|-----------------|-----------------|-----------------|
B|-----------------|-----------------|-----------------|-----------------|
G|-----------------|2-2-2-2--2-2-2-2-|3-3-3-3--3-3-3-3-|5-5-5-5--5-5-5-5-|
D|3-3-3-3--3-3-3-3-|-----------------|-----------------|-----------------|
A|-----------------|-----------------|-----------------|-----------------|
E|-----------------|-----------------|-----------------|-----------------|

e|-----------------|-----------------|-----------------|-----------------|
B|-----------------|-----------------|-----------------|-----------------|
G|-----------------|2-2-2-2--2-2-2-2-|3-3-3-3--3-3-3-3-|5-5-5-5--5-5-5-5-|
D|3-3-3-3--3-3-3-3-|-----------------|-----------------|-----------------|
A|-----------------|-----------------|-----------------|-----------------|
E|-----------------|-----------------|-----------------|-----------------|

e|-----------------|-----------------|-----------------|
B|-----------------|-----------------|-----------------|
G|-----------------|-----------------|2----------------|
D|3-3-3-3--3-3-3-3-|-----------------|3----------------|
A|-----------------|-----------------|3----------------|
E|-----------------|-----------------|1----------------|

            
            
Suggest correction
Creating personal tab
Creating personal tab
You can edit any tab online and save it as your Personal.

You can edit, replace or remove any tab part or add personal notes – all changes will be seen only by you.

Personal tabs can be accessed anytime from any device, even offline.
Learn more »
Give kudos to tab author, rate the tab!
1 2 3 4 5
comments
print report bad tab
guest
Wanna post a correction for this tab? Suggest correction