Oops, an error
Loading. Please wait.

Cant Stand Me Now bass

version 2
version 2

Whole song

Interactive

8,736 views 1 this week
no commentswrite comment
1 2 3 4 5
x 4
add to favorites
×
Save as Personal and add changes to this tab that will be seen only by you. Learn more ›
×
You can save this tab as Personal to edit and correct it or add notes. All changes will be seen only by you. Learn more »
launch autoscroll
font size
0
reset
guitar tuner
edit
Autoscroll
slow
fast
+/-
esc
set tempo
stop
Author
Difficulty
----------------------------------------------------------------------------
			   Cant Stand Me Now- Libertines
----------------------------------------------------------------------------

Tabbed By : Hayley
e-mail: barbara_thats_excellent@hotmai.com

Tuning : Standard EADG

Intro

G|--------------------------------------------------------------------------|
D|--------------------------------------------------------------------------|
A|-----------------------------------7~-------------------------------------|
E|---5-5-5-5-5-5-5-5-7-7-7-7-7-7-7-7----------------------------------------|


G|--------------------------------------------------------------------------|
D|--------------------------------------------------------------------------|
A|--------------------------------------------------------------------------|
E|--0-0-4-4-7-7-9-9---------------------------------------------------------|   repeat 16 times

G|--------------------------------------------------------------------------|
D|--------------------------------------------------------------------------|
A|--7-7-7-7-7-7-7-7-7-7-7-7-7-7-7-7-----------------------------------------|
E|---------------------------------------5-5-5-5-5-5-5-5-5-5-5-5-5-5-5-5----|


G|--------------------------------------------------------------------------|
D|--------------------------------------------------------------------------|
A|--4~----2~-----0~-----2~--------------------------------------------------|
E|--------------------------------------------------------------------------|

Verse

G|--------------------------------------------------------------------------|
D|--------------------------------------------------------------------------|
A|--7-7-7-7-7-7-7-7-------------------4-4-4-4-2-2-2-2-0-0-0-0-2-2-2-2----x2-|
E|-------------------5-5-5-5-5-5-5-5----------------------------------------|


G|--------------------------------------------------------------------------|
D|--------------------------------------------------------------------------|
A|--7-7-7-7-7-7-7-7-11-11-11-11-11-11-11-11-11-------x2---------------------|
E|--------------------------------------------------------------------------|
   if you wanna try...

Pre Chorus

G|--------------------------------------------------------------------------|
D|--------------------------------------------------------------------------|
A|--7~----4~---7~----4~----0~----2~-----------------------------------------|
E|--------------------------------------------------------------------------|
   Can't take me anywhere (I'll take you anywhere)...

Chorus

G|--------------------------------------------------------------------------|
D|--------------------------------------------------------------------------|
A|--7-7-7-7-7-7-7-7--7--------------------7-7-7-7-7-7-7-7-------------------|
E|----------------------5-5-5-5-5-5-5-5-------------------5-5-5-5-5-5-5-5---|
   You cant stand me now...

Verse 2

G|---------------------------------------------------------------------------|
D|---------------------------------------------------------------------------|
A|--7-7-7-7-7-7-7-7-------------------4-4-4-4-2-2-2-2-0-0-0-0-2-2-2-2--------|x2
E|-------------------5-5-5-5-5-5-5-5-----------------------------------------|

G|--------------------------------------------------------------------------|
D|--------------------------------------------------------------------------|
A|--7-7-7-7-7-7-7-7-11-11-11-11-11-11-11-11-11-------x2---------------------|
E|--------------------------------------------------------------------------|
   if you wanna try...


Pre Chorus

G|--------------------------------------------------------------------------|
D|--------------------------------------------------------------------------|
A|--7~----4~---7~----4~----0~----2~-----------------------------------------|
E|--------------------------------------------------------------------------|
   Can't take me anywhere (I'll take you anywhere)....


Second Chorus

G|--------------------------------------------------------------------------|
D|----------------------------------------------------------------------x2--|
A|--7-7-7-7-7-7-7-7--7--------------------7-7-7-7-7-7-7-7-------------------|
E|----------------------5-5-5-5-5-5-5-5-------------------5-5-5-5-5-5-5-5---|
   You cant stand me now...


Outro

G|--------------------------------------------------------------------------|
D|--------------------------------------------------------------------------|
A|--7-7-7-7-7-7-7-7-------------------4-4-4-4-2-2-2-2-0-0-0-0-2-2-2-2----x2-|
E|-------------------5-5-5-5-5-5-5-5----------------------------------------|


Thats it, its not perfect but it sounded good when i played it with my band
any questions just email me on barbara_thats_excellent@hotmail.com

| /  slide up
| \  slide down
| h  hammer-on
| p  pull-off
| ~  vibrato
| +  harmonic
| x  Mute note

============================================================================

            
            
Suggest correction
Creating personal tab
Creating personal tab
You can edit any tab online and save it as your Personal.

You can edit, replace or remove any tab part or add personal notes – all changes will be seen only by you.

Personal tabs can be accessed anytime from any device, even offline.
Learn more »
comments
print report bad tab
guest
You may want to rate the tab now too:
select rating
Wanna post a correction for this tab? Suggest correction