Oops, an error
Loading. Please wait.

Dont Look Back Into The Sun Tab

version 1
version 1

Whole song

Interactive

6,883 views 102 this week
no commentswrite comment
1 2 3 4 5
x 3
add to favorites
launch autoscroll
font size
0
reset
how to read this tab
guitar tuner
×
Best way to learn
"Dont Look Back Into The Sun"
Autoscroll
slow
fast
+/-
esc
set tempo
stop
Artist: Libertines 
Song: Dont Look Back Into The Sun

[Intro]
  Em         D            C           D           Am        Bm
e|7--7-7-7-7-5--5-5-5-5-5-8-8-8-8-8-8-5---5-5-5-5---5---5-5-7--7--7-7-7--|
B|8--8-8-8-8-7--7-7-7-7-7-8-8-8-8-8-8-7---7-7-7-7---5---5-5----7--7-7-7--|
G|9--9-9-9-9-7--7-7-7-7-7-9-9-9-9-9-9-7---7-7-7-7---5---5-5----7--7-9-7--|
D|------------------------------------------------7---7---7-9-9---9-9-9--|
A|-----------------------------------------------------------------------|
E|-----------------------------------------------------------------------|

  G                C
e|3--3-3-3-3-3-----3-3-3-3-3---------------------------------------------|
B|3--3-3-3-3-5-----5-5-5-5-5---------------------------------------------|
G|4--4-4-4-4-5-----5-5-5-5-5---------------------------------------------|
D|5--5-5-5-5-5-----5-5-5-5-5---------------------------------------------|
A|-----------------------------------------------------------------------|
E|-----------------------------------------------------------------------|

      Yeah!
e|----------------------------------------------------------------------|
B|----------------------------------------------------------------------|
G|12\--------4--4-5-7-5-4---4-5-7-4-5-7-4-5-7-5-4-----------------------|
D|----------------------------------------------------------------------|
A|----------------------------------------------------------------------|
E|----------------------------------------------------------------------|
    
e|----------------------------------------------------------------------|
B|-7-9-11-7-9-11-7-9-11--9--7-9---7-------------------------------------|
G|----------------------------------7--5--4--2--------------------------|
D|----------------------------------------------------------------------|
A|----------------------------------------------------------------------|
E|----------------------------------------------------------------------|

[Verse]
(Listen to the song to get the strumming)
  Em                D           C                           D
e|3-----------------5-----------3---------------------------5-----------|
B|5-----------------7-----------5---------------------------7-----------|
G|4-----------------7-----------5---------------------------7-----------|
D|5-----------------7-----------5---------------------------7-----------|
A|----------------------------------------------------------------------|
E|----------------------------------------------------------------------|
  Don't look back into the Sun, now that you know that your time has come,

            Am            Bm             G       C
e|----------5-------------7--------------3-------3-3-3-3-3-3------------|
B|----------5-------------7--------------3-------5-5-5-5-5-5------------|
G|----------5-------------7--------------4-------5-5-5-5-5-5------------|
D|----------7-------------9--------------5-------5-5-5-5-5-5------------|
A|----------------------------------------------------------------------|
E|----------------------------------------------------------------------|
  And they said it would never come for you.

[Chorus]
 G, D (Strum each several times)
  Em                D           C                           D
e|3-----------------5-----------3---------------------------5-----------|
B|5-----------------7-----------5---------------------------7-----------|
G|4-----------------7-----------5---------------------------7-----------|
D|5-----------------7-----------5---------------------------7-----------|
A|----------------------------------------------------------------------|
E|----------------------------------------------------------------------|
     
oh my friend you havent changed looking rough and living strange
 Am         Bm            G              C
e|----------5-------------7--------------3-------3-3-3-3-3-3------------|
B|----------5-------------7--------------3-------5-5-5-5-5-5------------|
G|----------5-------------7--------------4-------5-5-5-5-5-5------------|
D|----------7-------------9--------------5-------5-5-5-5-5-5------------|
A|----------------------------------------------------------------------|
E|----------------------------------------------------------------------|
and I know the you've got a taste for it too

[Chorus]
C                                                G
They'll never forgive you but they won't let you go   (Oh No)
C
No she'll never forgive you but she wont let you go, oh no

[Verse 2]
  Em                D           C                           D
e|3-----------------5-----------3---------------------------5-----------|
B|5-----------------7-----------5---------------------------7-----------|
G|4-----------------7-----------5---------------------------7-----------|
D|5-----------------7-----------5---------------------------7-----------|
A|----------------------------------------------------------------------|
E|----------------------------------------------------------------------|
Don't look back into the Sun, you got your past, but you are on the run,

            Am            Bm             G       C
e|----------5-------------7--------------3-------3-3-3-3-3-3------------|
B|----------5-------------7--------------3-------5-5-5-5-5-5------------|
G|----------5-------------7--------------4-------5-5-5-5-5-5------------|
D|----------7-------------9--------------5-------5-5-5-5-5-5------------|
A|----------------------------------------------------------------------|
E|----------------------------------------------------------------------|

I know the lies you said who did you say
  Em                D           C                           D
e|3-----------------5-----------3---------------------------5-----------|
B|5-----------------7-----------5---------------------------7-----------|
G|4-----------------7-----------5---------------------------7-----------|
D|5-----------------7-----------5---------------------------7-----------|
A|----------------------------------------------------------------------|
E|----------------------------------------------------------------------|
When they played that song at the Death Disco It starts so fast and ends so slow
           Am            Bm             G       C
e|----------5-------------7--------------3-------3-3-3-3-3-3------------|
B|----------5-------------7--------------3-------5-5-5-5-5-5------------|
G|----------5-------------7--------------4-------5-5-5-5-5-5------------|
D|----------7-------------9--------------5-------5-5-5-5-5-5------------|
A|----------------------------------------------------------------------|
E|----------------------------------------------------------------------|
All the time just reminds me of me and you

[Chorus 2]
C                                                    G
Ah they will never forgive you but they wont let you go  
(Let me go!!)
C
She'll never forgive you but she wont let you go, oh no


************************************

| \  Slide down

************************************
Suggest correction
Give kudos to tab author, rate the tab!
1 2 3 4 5
comments
print report bad tab
guest
You may want to rate the tab now too:
select rating
Wanna post a correction for this tab? Suggest correction