Oops, an error
Loading. Please wait.

Dont Look Back Into The Sun ukulele

version 1
version 1

Whole song

Interactive

1,829 views 1 this week
no commentswrite comment
1 2 3 4 5
3 more votes to show rating
add to favorites
×
Save as Personal and add changes to this tab that will be seen only by you. Learn more ›
×
You can save this tab as Personal to edit and correct it or add notes. All changes will be seen only by you. Learn more »
launch autoscroll
font size
0
reset
transpose
0
reset
simplify chords
display chords
guitar tuner
edit
Autoscroll
slow
fast
+/-
esc
set tempo
stop
Strumming
There is no strumming pattern for this song yet. and get +5 IQ
Don't Look Back Into The Sun Tab by Libertines, www.Ultimate-Guitar.Com

Don't Look Back Into the Sun - The Libertines

Hey this is a slightly altered, and in my opinion easier, version of the tabs for this
song. E-mail me and tell what you think of it @ Quadiebhoy@hotmail.com

********UPDATE ON MY LAST TAB*********


Chords:

	  F	  F	  F	  F	  E	  F
G	  3	  2	  0	  0	  0	  3
Em7	  0	  2	  2	  0	  0	  0
D	  0  	  0	  0	  2	  3	  4
C	  0	  0 	  2	  5	  1	  0

Intro: (guitar one palm muted)
e:----10----10----7----7----3—---5----10----10----------------|
B:----12----10----8----5----5—---7----10----10----------------|
G:----12—---11----7----5----5—---7----12----11----------------|
D:----12----12----9----5----5—---7----12----12----------------|
A:----10----12----7----7----3—---5----12----12----------------|
E:----10----10----7----7----3—---5----10----10----------------|

Intro: (guitar two, when chords stop)

e:---3--3--3-3--3--3-3--3--3-3--3--3-3--3--3-3--3--3-----------------|
B:----33-33-3-33-33-3-33-33-3-33-33-3-33-33-3-33-33-3----------------|
G:-------------------------------------------------------------------|
D:-------------------------------------------------------------------|
A:-------------------------------------------------------------------|
E:-------------------------------------------------------------------|


e:-------------------------------------------------------------------|
B:------0--0-1-3-1-0-0-1-3-1-0--0-1-3-0-1-3-0-1-0-1-3-1-0------------|
G:12\----------------------------------------------------------------|
D:-------------------------------------------------------------------|
A:-------------------------------------------------------------------|
E:-------------------------------------------------------------------|

e:----------3-----3-----5-3-23-23------------------------------------|
B:------3-5---3-5---3-5-------------33-11-00-------------------------|
G:-------------------------------------------22----------------------|
D:-------------------------------------------------------------------|
A:-------------------------------------------------------------------|
E:-------------------------------------------------------------------|


Verse 1

F                F
Dont look back into the sun
Am7                    F
now you know that your time has come
F                       F                  F                F
and they said that it'd never come for you     (Oh Oh Oh Oh)
F                F
oh my friend you havent changed
Am7               F
looking rough and living strange
F                       F                    F              F
and I know the you've got a taste for it too


Chorus

F                                                F
They'll never forgive you but they won't let you go   (Oh No)
F                                                F
no she'll never forgive you but she wont let you go, oh no

Verse 2

F                         F
Don't look back into the sun
Am7                F
you got your past, but you are on the run
F                    F                   F               F
I know the lies you said you dared to say
F                                 F
When they played that song at the Death Disco
Am7                   F
It starts so fast and ends so slow
F                     F                   F               F
all the time just reminds me of me and you

Chorus Two

F                                                    F
Ah they will never forgive you but they wont let you go
(Let me go!!)
F                                             F
She'll never forgive you but she wont let you go, oh no

Middle

Guitar one plays Verse chords.
Guitar two riff one.


Repeat Chorus two and Middle until the end.

            
            
Suggest correction
Creating personal tab
Creating personal tab
You can edit any tab online and save it as your Personal.

You can edit, replace or remove any tab part or add personal notes – all changes will be seen only by you.

Personal tabs can be accessed anytime from any device, even offline.
Learn more »
Give kudos to tab author, rate the tab!
1 2 3 4 5
comments
print report bad tab
guest
Wanna post a correction for this tab? Suggest correction