Oops, an error
Loading. Please wait.

France tab

version 3
version 3

Whole song

Interactive

4,687 views 9 this week
no commentswrite comment
1 2 3 4 5
1 last vote to show rating
add to favorites
×
Save as Personal and add changes to this tab that will be seen only by you. Learn more ›
×
You can save this tab as Personal to edit and correct it or add notes. All changes will be seen only by you. Learn more »
launch autoscroll
font size
0
reset
how to read this tab
guitar tuner
edit
Autoscroll
slow
fast
+/-
esc
set tempo
stop
Author
FRANCE - THE LIBERTINES

INTRO/VERSE
  Bm		   G		E	 F#
e----2-2-----------3-3----------0-0------------2-2---|
B----3-3-----------3-3----------0-0-----------2---2--|
G----4-4-----------4-4----------1-1----------3-----3-|
D----4-4-----------5-5----------2-2---------4--------|
A-2--2-2-----------5-5----------2-2--------4---------|
E----------0-2-3---3-3-3-2-0----0-0-0-1-2-2----------|

Bm		  G		      E                      	  F#
The ideal girl to London from France, came over then left me, she left me entranced

      Bm		  G  		           E   F#
Now I have to get by once again on my own, nothing but memories

   Bm		          G				   E
I remember your eyes in a fine shade of brown, while these blue eyes of mine they stay
F#
closed

  Bm			    G		E			   F#
I kissed you goodbye on the M109 and I choked as I watched the bus go

BREAK
  Bm 	    G     	E
e-----------3---3-3-----0----------------2-2----|
B-3---3-----3---3-3-----0---------------2---2---|
G-4---4-----4---4-4-----1--------------3-----3--|
D-----------5---5-5-----2-------------4---------|
A-2-0-------5---5-5-----2------------4----------|
E-----3-2-3-3---3-3-3-2-0-1-2-1-0-2-2---------2-|

e-----------3---3-3-----0----------------2-2------3--2----3--2--------------|
B-3---3-----3---3-3-----0---------------2---2-----3--2----3--2--------------|
G-4---4-----4---4-4-----1--------------3-----3----4--3----4--3--------------|
D-----------5---5-5-----2-------------4-----------3--2----3--2--4-2-0-------|
A-2-0-------5---5-5-----2------------4------------5--4----5--4---------4--2-|
E-----3-2-3-3---3-3-3-2-0-1-2-1-0-2-2---------2-3-3--2--3-3--2--------------|

(Back to verse)

Bm			    G		  E 			     F#
Choking and smoking to your angelic soul, choking and smoking myself into a hole

	  Bm		     G				E  	     F#
Where the only way out is to sleep and to dream and to call out your name


(Repeat Break)
(SOLO over verse chords. Not even going to attempt to tab this haha sorry just strum around

the guitar with craziness and throw in this occasionally) :

e-----------------------|
B-----3p2-3p2h3p2-0-----|
G-2h4-------------------|
D-----------------------|
A-----------------------|
E-----------------------|

End on Bm

Please leave comments and/or rate should you wish to!
Suggest correction
Creating personal tab
Creating personal tab
You can edit any tab online and save it as your Personal.

You can edit, replace or remove any tab part or add personal notes – all changes will be seen only by you.

Personal tabs can be accessed anytime from any device, even offline.
Learn more »
Give kudos to tab author, rate the tab!
1 2 3 4 5
comments
print report bad tab
guest
You may want to rate the tab now too:
select rating
Wanna post a correction for this tab? Suggest correction