Oops, an error
Loading. Please wait.

France tab

version 4
version 4

Whole song

Interactive

23,381 views 30 this week
1 commentread comment
1 2 3 4 5
x 16
add to favorites
×
Save as Personal and add changes to this tab that will be seen only by you. Learn more ›
×
You can save this tab as Personal to edit and correct it or add notes. All changes will be seen only by you. Learn more »
launch autoscroll
font size
0
reset
how to read this tab
guitar tuner
edit
Autoscroll
slow
fast
+/-
esc
set tempo
stop
Author
The Libertines - France

G7: 353433

[Intro]
Bm  G7  E  F# x2

[Verse]
    Bm            G7                      E                      F#
The ideal girl in London from France came over then left me she left me entranced
      Bm                   G7                     E         F#
now I have to get by once again on my own nothing but...memories
     Bm                      G7                              E                           F#
so I remember your eyes that fine shade of brown while these blue eyes of mine they stay closed
  Bm                        G7      E                           F#
I kissed you goodbye on the M-109 I choked as I watched the bus go


[Chorus]

e|-----------3---3--------------------2-----|
B|-----------3---3----------------------2---|
G|-----------4---4------------------3-----3-|
D|-----------3-x-3----------------4---------|
A|-----------5-x-5--------------4-----------|
E|-7-5-3-2-3-3-x-3--0-1-2-1-0-2-------------| x2

e|-----------2--------------2-|
B|-----------2--------3-----2-|
G|-------4---3----------4---3-|
D|-----3-----4------3-------2-|
A|---5-------4----5---------4-|
E|-3---------2--3-----------2-|

e|----------|
B|----------|
G|----------|
D|-4-2-0----|
A|-------4--|
E|----------|

    Bm                          G7               E                          F#
I'm choking and smoking to your angelic soul I'm choking and smoking myself into a hole
          Bm                 G7                        E            F#
Where the only way out is to sleep and to dream and to cry out your name

[Chorus]

[Solo]

e|----------------------------------12-11-10-9-8-7-6-5-4----------|
B|----------------------------------------------------------------|
G|-3/4-7p6-7p6h7p6-4---3/4-7-6-4----------------------------------|
D|----------------------------------------------------------------|
A|----------------------------------------------------------------|
E|----------------------------------------------------------------|

e|---------------------------------------12-11-10---9-9-9---------|
B|------------------------------12--------------------------------|
G|--7p6-7p6h7p6-4-3---3/4-7-6-4-----------------------------------|
D|----------------------------------------------------------------|
A|----------------------------------------------------------------|
E|----------------------------------------------------------------|

e|-7---7---7---7-----------------7---6-5---6-------------6/5------|
B|---7---7---7---9---9-------------6-----6-7-------------7/6------|
G|-----------------9-----------------------------------------3----|
D|----------------------------------------------------------------|
A|----------------------------------------------------------------|
E|---------------------0-1-2-1-0-------------7-5-3-2-1/2----------|

e|--------------------------------------------------------------2-|
B|---------------------5-----------------3-----2----------------3-|
G|-------------------4---------4--3---------4--3--------2-------4-|
D|-----------------3---------3----4-----3---------2h4p2---2-4-0-4-|
A|---------------5---------5----------5-------------------------2-|
E|-0-1-2-1-0---3---------3----------3---------------------------2-|



************************************

| x  Dead note
| h  Hammer-on
| p  Pull-off
| /  Slide up

************************************

            
            
Suggest correction
Creating personal tab
Creating personal tab
You can edit any tab online and save it as your Personal.

You can edit, replace or remove any tab part or add personal notes – all changes will be seen only by you.

Personal tabs can be accessed anytime from any device, even offline.
Learn more »
comments
print report bad tab
1 comment total.
0 reply
tentpole 62 Nov 30, 2009 05:51 AM

good tab been trying 2 learn the solo 4 ages its not perfect but its the best on here keep up the good work

guest
You may want to rate the tab now too:
select rating
Wanna post a correction for this tab? Suggest correction