Oops, an error
Loading. Please wait.

Fury Of Chonburi Bass Tab

13 views 3 this week
no commentswrite comment
1 2 3 4 5
3 more votes to show rating
add to favorites
launch autoscroll
font size
0
reset
guitar tuner
Autoscroll
slow
fast
+/-
esc
set tempo
stop
Help us to improve Ultimate-Guitar.com Take our survey!
×
[Intro]

G|-------------------------------------------------------|
D|-------------------------------------------------------|
A|-7-7-7------7-7-7-----7-7-7-----7-7-7------------------|
E|-------3-0--------3-0-------3-0-------3-0--------------|

[Verse]

G|-----------4--------------|------------4----------------|
D|-7-7-7-5--------7-7-7-5---|--7-7-7-5-------7-7-7-5------|
A|---------7--------------7-|----------7-------------7----|
E|--------------------------|-----------------------------|

G|-----------4--------------|------------4----------------|
D|-7-7-7-5--------7-7-7-5---|--7-7-7-5-------7-7-7-5------|
A|---------7--------------7-|----------7-------------7----|
E|--------------------------|-----------------------------|

[Chorus]

G|---------------------------------|-------------------------------------------|
D|---------------------------------|-------------------------------------------|
A|-2-2-2-2-5-5-5-5-7-7-7-7-9-9-9-9-|-2-2-2-2-5-5-5-5-7-7-7-7-9-9-9-9-----------|
E|---------------------------------|-------------------------------------------|

G|-------------------------------------------------------|
D|-------------------------------------------------------|
A|-7-7-7------7-7-7-----7-7-7-----7-7-7------------------|
E|-------3-0--------3-0-------3-0-------3-0--------------|

[Verse]

G|-----------4--------------|------------4----------------|
D|-7-7-7-5--------7-7-7-5---|--7-7-7-5-------7-7-7-5------|
A|---------7--------------7-|----------7-------------7----|
E|--------------------------|-----------------------------|

G|-----------4--------------|------------4----------------|
D|-7-7-7-5--------7-7-7-5---|--7-7-7-5-------7-7-7-5------|
A|---------7--------------7-|----------7-------------7----|
E|--------------------------|-----------------------------|

[Chorus]

G|---------------------------------|-------------------------------------------|
D|---------------------------------|-------------------------------------------|
A|-2-2-2-2-5-5-5-5-7-7-7-7-9-9-9-9-|-2-2-2-2-5-5-5-5-7-7-7-7-9-9-9-9-----------|
E|---------------------------------|-------------------------------------------|

G|-------------------------------------------------------|
D|-------------------------------------------------------|
A|---------5-5-5-5---------5-5-5-5-9-9-9-9-9-9-9-9-9-----|
E|-0-0-0-0---------0-0-0-0-------------------------------|

[Bridge]

G|-----------4--------------|------------4----------------|
D|-7-7-7-5--------7-7-7-5---|--7-7-7-5-------7-7-7-5------|
A|---------7--------------7-|----------7-------------7----|
E|--------------------------|-----------------------------|

G|-----------4--------------|------------4----------------|
D|-7-7-7-5--------7-7-7-5---|--7-7-7-5-------7-7-7-5------|
A|---------7--------------7-|----------7-------------7----|
E|--------------------------|-----------------------------|

G|-----------4--------------|------------4----------------|
D|-7-7-7-5--------7-7-7-5---|--7-7-7-5-------7-7-7-5------|
A|---------7--------------7-|----------7-------------7----|
E|--------------------------|-----------------------------|

[Outro]

G|---------------------------------|-------------------------------------------|
D|---------------------------------|-------------------------------------------|
A|-2-2-2-2-5-5-5-5-7-7-7-7-9-9-9-9-|-2-2-2-2-5-5-5-5-7-7-7-7-9-9-9-9-----------|
E|---------------------------------|-------------------------------------------|

G|---------------------------------|-------------------------------------------|
D|---------------------------------|-------------------------------------------|
A|-2-2-2-2-5-5-5-5-7-7-7-7-9-9-9-9-|-2-2-2-2-5-5-5-5-7-7-7-7-9-9-9-9-----------|
E|---------------------------------|-------------------------------------------|

G|-------------------------------------------------------|
D|-------------------------------------------------------|
A|---------5-5-5-5---------5-5-5-5-9-9-9-9-9-9-9-9-9-----|
E|-0-0-0-0---------0-0-0-0-------------------------------|

Suggest correction
Give kudos to tab author, rate the tab!
1 2 3 4 5
comments
print report bad tab
guest
You may want to rate the tab now too:
select rating
Wanna post a correction for this tab? Suggest correction