Oops, an error
Loading. Please wait.

Gunga Din tab

version 2
version 2

Whole song

5,932 views 9 this week
2 commentsread comments
1 2 3 4 5
x 4
add to favorites
×
Save as Personal and add changes to this tab that will be seen only by you. Learn more ›
×
You can save this tab as Personal to edit and correct it or add notes. All changes will be seen only by you. Learn more »
launch autoscroll
font size
0
reset
how to read this tab
guitar tuner
edit
Autoscroll
slow
fast
+/-
esc
set tempo
stop
Author
-------------------------------------------------------------------------------
                             SONG NAME - Band Name
-------------------------------------------------------------------------------
Tabbed by: andymaq88
E-mail: andymaq88@gmail.com

I tabbed this out pretty quickly since the song was just released today (07/02/15), so 
forgive any mistakes (of which I'm sure there are many).

Tuning: Standard

Intro/Verse (Lead)

e|-10--10-9-7-10-------------------------------------------------------------|
B|---------------7---7-10------------7---7--7--7-----------------------------|
G|------------------------9---7-9-7--9b--9b-9b-9b--9-7-----------------------|
D|---------------------------------------------------------------------------|
A|---------------------------------------------------------------------------|
E|---------------------------------------------------------------------------|

Chorus (Lead)

e|---------------------------------------------------------------------------|
B|-7-7-5-2---5-2-0---0-2-0---------------------------------------------------|
G|-----------------2-------2-------------------------------------------------|
D|---------------------------------------------------------------------------|
A|---------------------------------------------------------------------------|
E|---------------------------------------------------------------------------|

Chords (listen to song for exact rhythm)

e|-7-------------2-----(2)---0-----------------------------------------------|
B|-7-------------2-----(2)---0-----------------------------------------------|
G|-7-------------2-----(4)---1-----------------------------------------------|
D|-9-------------4-----(4)---2-----------------------------------------------|
A|-9-------------4-----(4)---2-----------------------------------------------|
E|-7-------------2-----(2)---0-----------------------------------------------|

Bassline

G|---------------------------------------------------------------------------|
D|---------------------------------------------------------------------------|
A|-17--17-16-14-17-9---9-12-7---5-7-5--5b--5b-5b-5b-7--5---------------------|
E|---------------------------------------------------------------------------|

Bridge

e|---------------------9------------------------7----------------------------|
B|---------------------9------------------------7----------------------------|
G|---------------------9------------------------7----------------------------|
D|-66666-9-13-11111111-11--(x2)-44444-7-11-9999-9--7--6--4--4----------------|
A|-66666-9-13-11111111-11-------44444-7-11-9999-9--7--6--5--4----------------|
E|-44444-7-11-9-9-9-9--9--------22222-5-9- 7777-7--5--4--3--2----------------|

Haven't figured out the Chorus chords yet so please post suggestions/tabs.  Thanks!


************************************

| /   slide up
| \   slide down
| h   hammer-on
| p   pull-off
| ~   vibrato
| +   harmonic
| x   Mute note
| b   Bend
| pb  Pre-bend
| br  Bend release
| pbr Pre-bend release
| brb Bend release bend

************************************
Suggest correction
Creating personal tab
Creating personal tab
You can edit any tab online and save it as your Personal.

You can edit, replace or remove any tab part or add personal notes – all changes will be seen only by you.

Personal tabs can be accessed anytime from any device, even offline.
Learn more »
comments
print report bad tab
2 comments total.
0 reply
Pelusteriano 5,295 Jul 03, 2015 12:52 PM

I think the fingering for the chorus lead can be upgraded by "boxing" it; keep it on the 4-7 frets box.

0 reply
lewiskavanagh26 10 Jul 11, 2015 11:47 AM, edited at 03:47 pm

I think this sounds better in my head

e|-10--10-9-7-10-------------------------------------------------------------|
B|---------------7---7-10------------7---7--7--7-----------------------------|
G|------------------------9---7-9-7--9b--9b-9b-9b--7------------------------|
D|---------------------------------------------------9-----------------------|
A|---------------------------------------------------------------------------|
E|---------------------------------------------------------------------------|

guest
You may want to rate the tab now too:
select rating
Wanna post a correction for this tab? Suggest correction