Oops, an error
Loading. Please wait.

Heart Of The Matter bass

1,686 views 1 this week
2 commentsread comments
1 2 3 4 5
1 last vote to show rating
add to favorites
×
Save as Personal and add changes to this tab that will be seen only by you. Learn more ›
×
You can save this tab as Personal to edit and correct it or add notes. All changes will be seen only by you. Learn more »
launch autoscroll
font size
0
reset
guitar tuner
edit
Autoscroll
slow
fast
+/-
esc
set tempo
stop
Author
Difficulty
-------------------------------------------------------------------------------
                             HEART OF THE MATTER - THE LIBERTINES
-------------------------------------------------------------------------------
Tabbed by: BranxBass
E-mail: brandon_magadan.o@hotmail.com

Intro (0:11)

G|---------------------------------------------------------------------------|
D|---------------------------------------------------------------------------|
A|---------------77777777------------5555-3333-------------------------------| X 4
E|-----33333333------------77777777------------------------------------------|

Verse (0:32)

G|------------------------7-5-7---7-5-7---------------------------9-7-9----9-7-------|
D|---7-5-7---7-5-7----------------------------9-7-9---9-7-9--------------------10-9--|
A|-----------------------5------5--------------------------------7-------------------| 
E|-5-------5---------------------------------7-------7-------------------------------|

G|------------------------7-5-7---7-5-7------------------------------------------|
D|---7-5-7---7-5-7----------------------------9-7-9---9-7-9----------------------|
A|-----------------------5------5----------------------------5555555555555555----| 
E|-5-------5---------------------------------7-------7---------------------------|

Coro 1 (0:54) 

G|---------------------------------------------------------------------------|
D|---------------------------------------------------------------------------|
A|-----7-------------7-------------7-------------7---------------------------|  
E|--------55-5-77-------55-5-77-------55-5-77-------55-5-77------------------|

Coro 2 (1:47 & 2:50)

G|---------------------------------------------------------------------------|
D|---------------------------------------------------------------------------|
A|-----7-------------7-------------7-------------7---------------------------| X 2
E|--------55-5-77-------55-5-77-------55-5-77-------55-5-77------------------|

G|----------|
D|----------|
A|-----5----| 
E|----------|



Intro
Verse
Coro 1
Intro 
Verse
Coro 2
Intro 
Verse
Coro 2 



| /  slide up
| \  slide down
| h  hammer-on
| p  pull-off
| ~  vibrato
| +  harmonic
| x  Mute note
===============================================================================

            
            
Suggest correction
Creating personal tab
Creating personal tab
You can edit any tab online and save it as your Personal.

You can edit, replace or remove any tab part or add personal notes – all changes will be seen only by you.

Personal tabs can be accessed anytime from any device, even offline.
Learn more »
Give kudos to tab author, rate the tab!
1 2 3 4 5
comments
print report bad tab
2 comments total.
0 reply
JP Guitar 107 Oct 02, 2015 03:15 AM

To my ears, the chorus goes E, A, B, D, E. But still a nice tab :)

0 reply
brandon_magadan.o 152 Oct 02, 2015 05:54 PM, edited on April 23 2016, 08:22 pm

Thanks for the correction, but for me is Ok

guest
You may want to rate the tab now too:
select rating
Wanna post a correction for this tab? Suggest correction