Oops, an error
Loading. Please wait.

I Love You But Youre Green Chords

19,820 views 6 this week
4 commentsread comments
1 2 3 4 5
x 5
add to favorites
×
Save as Personal and add changes to this tab that will be seen only by you. Learn more ›
×
You can save this tab as Personal to edit and correct it or add notes. All changes will be seen only by you. Learn more »
save as personal
new!
launch autoscroll
font size
0
reset
transpose
0
reset
simplify chords
display chords
guitar tuner
Autoscroll
slow
fast
+/-
esc
set tempo
stop
Author
Strumming
There is no strumming pattern for this song yet. and get +5 IQ
I love you (but you're green)
The libertines

Little intro bit. Also played between verses.

                                      X2
e--7----8----10---8---7------3-/-5------------------------------------------|
B--8----10---12---10--8------5-/-7------------------------------------------|
G---------------------------------------------------------------------------|
D---------------------------------------------------------------------------|
A---------------------------------------------------------------------------|
E---------------------------------------------------------------------------|

Intro:  G   Bm   C   D


G Bm             C  D
I was a troubled teen

G          Bm          C      D
who put an advert in a magazine

       G            Bm           C   D
to the annoyance of my imaginary lover

    G           Bm
she doubted my integrity

    C                D
and this is what she said to me:

 G  Bm           C  D
"Oh, you, you're green

                    G       Bm
you don't know what love means

            C      D
well let me tell you

   G           Bm
it tickles you pink

       C       D
Oh yeah but it likes to hear you scream

G        Bm              C                          D
Fire and damnation, lamentations for the likes of you"

G  G/F# Em

           A
and when she goes

Em          A
just let her go

Em             A
if she said shes going

Em                A
just make sure she goes

              D
Make sure she goes

*Little intro bit*

*Verse 2*

*Chorus*

*Little intro bit again*


*verse 2 lyrics*

I was a troubled teen
Untroubled only in my daydreams
to the annoyance of somebody or other
they doubted my philosophy
now this is what they said to me
"oh you you'll soon be up where you belong
But it's blood from broken hearts
that wrote the words to every song"
A beatific smile for ???

But I, only I, only I...
I can see the serpent
oh you you're green
you don't know what love means
Oh let me tell you
Tickles you pink...


OK that's it now. Hope thats ok. Thanks for looking. This was all my own work. Bye bye
Suggest correction
comments
print report bad tab
4 comments total. Showing first comments.
0 reply
PeteBaldwin 50 Feb 01, 2007 02:04 AM

The intro is:

e--7----8----10---8---7--0---0----0------------------------------------------|
B--8----10---12---10--8--8---8/5--5/10----------------------------------------|
G---------------------------------5/11-----------------------------------------|
D---------------------------------------------------------------------------|
A---------------------------------------------------------------------------|
E---------------------------------------------------------------------------|

Pretty much what you had but theres the slide from 8/5 on the B string that makes it sound more like the original

0 reply
atom1kyak 10 Oct 06, 2007 02:32 PM

my cousin pointed out to me that the intro is basically the same as "brown eyed girl" by van morrison.

listen to it--they just slow it down in this version.

great song

0 reply
atom1kyak 10 Oct 06, 2007 02:36 PM

also (i forgot to put this in the original comment):
i feel like there should be a quick slide in very beginning of the chord progressioin, from F# to G.

So the tabs would run: F# G Bm C D

that's assuming you're playing both F# and G as barre chords.

guest
You may want to rate the tab now too:
select rating
Wanna post a correction for this tab? Suggest correction