Oops, an error
Loading. Please wait.

Man Who Would Be King bass

version 1
version 1

Whole song

Interactive

2,024 views 3 this week
no commentswrite comment
1 2 3 4 5
x 3
add to favorites
×
Save as Personal and add changes to this tab that will be seen only by you. Learn more ›
×
You can save this tab as Personal to edit and correct it or add notes. All changes will be seen only by you. Learn more »
launch autoscroll
font size
0
reset
guitar tuner
edit
Autoscroll
slow
fast
+/-
esc
set tempo
stop
Author
---------------------------------------------------------------------------
              MAN WHO WOULD BE KING - The Libertines
---------------------------------------------------------------------------

Basstab by Gustavo02
emaildogustavo02@hotmail.com

This song has a simple and cool bassline, I hope u like it. 

INTRO:

G|--------------------------------|  |--------------------------------|
D|--------------------------------|  |--------------------------------|
A|--------------------------------|  |--------------------------------|
E|0---0-----------0---0-----------|  |5-------------------------------|

after the small solo of the guitar:
G|--------------------------------|  
D|--------------------------------|  
A|3---------------5---------------|  
E|--------------------------------| 


MAIN PART:

G|--------------------------------|  |--------------------------------|
D|--------------------------------|  |--------------------------------|
A|7---------------7-------5---5---|  |7---------------7-------5---5---|  
E|--------7-----------------7-----|  |--------7-----------------7-----| x2

the voice enters:

G|--------------------------------|  |--------------------------------|
D|--------------------------------|  |--------------------------------|
A|7---------------7-------5---5---|  |7---------------7-------5---5---|  
E|--------7-----------------7-----|  |--------7-----------------7-----|
                                     
G|--------------------------------|  |--------------------------------|
D|--------------------------------|  |--------------------------------|
A|3---------------5---------------|  |7---------------7-------5---5---|
E|--------------------------------|  |--------7-----------------7-----|

G|--------------------------------|  |--------------------------------|
D|--------------------------------|  |--------------------------------|
A|7-------5---5---7-------5---5---|  |3------------3---5----------5---|  
E|----------7---------------7-----|  |--------3---------------5-------|
 
This last part keep repeating, i think you will fell it


LA-LA-LA PART:

G|--------------------------------|  |--------------------------------|
D|--------------------------------|  |--------------------------------|
A|7-------------------------------|  |--------------------------------|
E|--------------------------------|  |--------------------------------|

G|--------------------------------|  |--------------------------------|
D|--------------------------------|  |--------------------------------|
A|3-----------3---5-----------5---|  |7---------------7-------5---5---|
E|--------3---------------5-------|  |--------7-----------------7-----|

G|--------------------------------|  |--------------------------------|
D|--------------------------------|  |--------------------------------|
A|7---------------7-------5---5---|  |3------------3---5----------5---|  
E|--------7-----------------7-----|  |--------3---------------5-------|
 
G|--------------------------------|  
D|--------------------------------| <--- 2x
A|3-----------3---5-----------5---|  
E|--------3---------------5-------|  


QUIET PART A: (play it 2x)

G|--------------------------------|  |--------------------------------|
D|--------------------------------|  |--------------------------------|
A|7---------------------------7---|  |\3--------------------------3---|
E|--------------------------------|  |--------------------------------|

G|--------------------------------|  |--------------------------------|
D|--------------------------------|  |--------------------------------|
A|/5------------------------------|  |7-------------------------------|
E|--------------------------------|  |--------------------------------|

QUIET PART B: 
(when the funny backin vocal enters)  (play it 2x)

G|--------------------------------|  |--------------------------------|
D|--------------------------------|  |--------------------------------|
A|7-----7---------7-----7---------|  |3-----3---------3-----3---------|
E|--------------------------------|  |--------------------------------|

G|--------------------------------|  |--------------------------------|
D|--------------------------------|  |--------------------------------|
A|5-----5---------5-----5---------|  |7-----7---------7-----7---------|
E|--------------------------------|  |--------------------------------|


INSTRUMENTAL PART (with some screams):

The main notes are the same as before, there is just some variations, 
maybe you can already figure out by now. But, anyways:

G|--------------------------------|  |--------------------------------|
D|--------------------------------|  |--------------------------------|
A|7---------------7-------5---5---|  |7---------------7-------5---5---|  
E|--------7-----------------7-----|  |--------7-----------------7-----|
                                     
G|--------------------------------|  
D|--------------------------------|  
A|3-----------3---5-----------5---|  
E|--------3---------------5-------|  

G|--------------------------------|  |--------------------------------|
D|--------------------------------|  |--------------------------------|
A|7---------------7-------5---5---|  |7---------------7-------5---5---|  
E|--------7-----------------7-----|  |--------7-----------------7-----|

G|--------------------------------|  |--------------------------------|
D|--------------------------------|  |--------------------------------|
A|7---------------7-------5---5---|  |3------------3---5----------5---|  
E|--------7-----------------7-----|  |--------3---------------5-------|

G|--------------------------------|  
D|5-------------------------------|  
A|----------------7-------5---5---|  
E|--------7-----------------7-----|  

------------------------------------------
Play another versus and another LA LA LA part
but in the end of the LA LA part, instead of that 2x, 
you play about 9x
-----------------------

ENDING 
(at 03:03 more or less):

G|------------------------|  
D|------5.---------7--7---|  
A|3---------3-5-----------|  
E|------------------------|   keep doing this

ENDING OF ENDING: 
(at 03:43 more or less):

G|------------------------|  
D|------------------------|  
A|3-----------5-----------|  keep doing it until the song stops.
E|------------------------|  




            
            
Suggest correction
Creating personal tab
Creating personal tab
You can edit any tab online and save it as your Personal.

You can edit, replace or remove any tab part or add personal notes – all changes will be seen only by you.

Personal tabs can be accessed anytime from any device, even offline.
Learn more »
Give kudos to tab author, rate the tab!
1 2 3 4 5
comments
print report bad tab
guest
You may want to rate the tab now too:
select rating
Wanna post a correction for this tab? Suggest correction