Oops, an error
Loading. Please wait.

Music When The Lights Go Out bass

version 1
version 1

Whole song

Interactive

3,982 views 3 this week
no commentswrite comment
1 2 3 4 5
2 more votes to show rating
add to favorites
×
Save as Personal and add changes to this tab that will be seen only by you. Learn more ›
×
You can save this tab as Personal to edit and correct it or add notes. All changes will be seen only by you. Learn more »
launch autoscroll
font size
0
reset
guitar tuner
backing track
0:00
0:00
edit
Autoscroll
slow
fast
+/-
esc
set tempo
stop
Author
Not my tab, all credit goes to Snowy, i thought this tab needed uploading on to here.

The Libertines - Music When The Lights Go Out
Tabbed by Snowy

Guitar and vocal intro, bass joins in after first verse

Verse;

G---------------------------------------------------------|
D--------2-2-22------------------------------5-5-555------|
A-3-3-33--------0-0-00---2h3-5-5-X5X5-00-5h7--------------|
E----------------------3----------------------------------|

Chorus; ("I no longer hear the music when.....")

G------------------------------------------------------------------|
D------------------------------------------------------------------|
A--------3-3-333-33-------3-3-333-33------3-3-333-33-5-5-5-5.5.----|
E-1-11---------------1-11------------1-11--------------------------| x1

G------------------------------------------------------------------------|
D------------------------------------------------------------------------|
A--------3-3-333-33-------3-3-333-33------3-3-333-33-5-5-5-5555555555----|
E-1-11---------------1-11------------1-11--------------------------------| x1

The verse, but when the vocals kick in again.... ("All the memories of the....")

G------------------------------------------|
D----2.-0.--------------------5-5-555-5----|
A-3.----------1/5-5X5X5-0-5h7--------------|
E----------3.------------------------------| x1 and then verse again and then chorus!

End on

G-----
D-----
A-3~--
E-----
Suggest correction
Creating personal tab
Creating personal tab
You can edit any tab online and save it as your Personal.

You can edit, replace or remove any tab part or add personal notes – all changes will be seen only by you.

Personal tabs can be accessed anytime from any device, even offline.
Learn more »
Give kudos to tab author, rate the tab!
1 2 3 4 5
comments
print report bad tab
guest
You may want to rate the tab now too:
select rating
Wanna post a correction for this tab? Suggest correction