Oops, an error
Loading. Please wait.

Pay The Lady tab

974 views 1 this week
no commentswrite comment
1 2 3 4 5
2 more votes to show rating
add to favorites
×
Save as Personal and add changes to this tab that will be seen only by you. Learn more ›
×
You can save this tab as Personal to edit and correct it or add notes. All changes will be seen only by you. Learn more »
launch autoscroll
font size
0
reset
how to read this tab
guitar tuner
edit
Autoscroll
slow
fast
+/-
esc
set tempo
stop
Early Libs Demo

tabbed by Heethmo
e|------------------------------------------------------|
B|------------------------------------------------------|
G|------------------------------------------------------|
D|------------------------------7/6-9-7-6---------------|
A|----7-5-------------------7-5-------------------------|
E|--0-----5/4\5/4\5/7-----0-----------------------------|

x2

verse chords

E7    A7
e|-7--5---9-8-7---|
b|-9--5-----------|
g|-7--6-----------|
d|-9--5-----------|
a|-7--7-----------|
e|----5-----------|
                                      E7
every blues song in the world has the answer
                          A7         go down the frets with pinky^
or can i tell you in the morning,
                      E7
words mumble into soft white pillows,
A7             *go down frets with pinky
in that sleepy Autumn dawn


pre chorus

A7 - G7
theres a street lamp on
F7              E7
what do you say

chorus
D - A7
Pay the woman on the way back home

ends on G#7
ho-o-o-o-o-ome

            
            
Suggest correction
Creating personal tab
Creating personal tab
You can edit any tab online and save it as your Personal.

You can edit, replace or remove any tab part or add personal notes – all changes will be seen only by you.

Personal tabs can be accessed anytime from any device, even offline.
Learn more »
Give kudos to tab author, rate the tab!
1 2 3 4 5
comments
print report bad tab
guest
Wanna post a correction for this tab? Suggest correction