Oops, an error
Loading. Please wait.

What A Waster bass

version 1
version 1

Whole song

Interactive

4,359 views 3 this week
no commentswrite comment
1 2 3 4 5
x 5
add to favorites
×
Save as Personal and add changes to this tab that will be seen only by you. Learn more ›
×
You can save this tab as Personal to edit and correct it or add notes. All changes will be seen only by you. Learn more »
launch autoscroll
font size
0
reset
guitar tuner
edit
Autoscroll
slow
fast
+/-
esc
set tempo
stop
Author
Difficulty
----------------------------------------------------------------------------
			     WHAT A WASTER - Libertines
----------------------------------------------------------------------------

Tabbed By : Hayley
e-mail: barbara_thats_excellent@hotmail.com

Tuning: Standard EADG

Intro

No bass for the first few seconds then

G|-------------------------------------------------------------------------|
D|-------------------------------------------------------------------------|
A|--0-0-0---0--------------------------------------------------------------|
E|--------3----------------------------------------------------------------|

Verse 1

G|-------------------------------------------------------------------------|
D|-------------------------------------------------------------------------|
A|--0-0-0-0-5-5-5-5--------------------------x3----------------------------|
E|------------------3-3-3-3-0-0-0-0----------------------------------------|

G|-------------------------------------------------------------------------|
D|-------------------------------------------------------------------------|
A|--0-0-0---0--------------------------------------------------------------|
E|--------3----------------------------------------------------------------|

Verse 2

G|-------------------------------------------------------------------------|
D|-------------------------------------------------------------------------|
A|--0-0-0-0-5-5-5-5--------------------------x3----------------------------|
E|------------------3-3-3-3-0-0-0-0----------------------------------------|

then on the 4th time

G|---------------------------------------------------------------------------|
D|---------------------------------------------------------------------------|
A|-0-0-0-0-5-5-5-5-----------------0-0-0-0-----------------------------------|
E|-----------------3-3-3-3-3-2-1-0-----------0-1-2-3-3-3-3---pause-----------|

Chorus

G|-------------------------------------------------------------------------|
D|-------------------------------------------------------------------------|
A|---------------------------------0-0-0---0-------------------------------|
E|-1-1-1-1-3-3-3-3-1-1-1-1-3-3-3-3-------3---------------------------------|

Verse

G|-------------------------------------------------------------------------|
D|-------------------------------------------------------------------------|
A|--0-0-0-0-5-5-5-5--------------------------x3----------------------------|
E|------------------3-3-3-3-0-0-0-0----------------------------------------|

then on the 4th time

G|-------------------------------------------------------------------------|
D|-------------------------------------------------------------------------|
A|-0-0-0-0-5-5-5-5----------------0-0-0-0----------------------------------|
E|-----------------3-3-3-3-2-1-0------------0-1-2-3-3-3-3---pause----------|

Chorus

G|-------------------------------------------------------------------------|
D|-------------------------------------------------------------------------|
A|---------------------------------0-0-0---0-------------------------------|
E|-1-1-1-1-3-3-3-3-1-1-1-1-3-3-3-3-------3---------------------------------|

G|-------------------------------------------------------------------------|
D|-------------------------------------------------------------------------|
A|---------------------------------0-0-0---0-------------------------------|
E|-1-1-1-1-3-3-3-3-1-1-1-1-3-3-3-3-------3---------------------------------|

Interlude

G|-------------------------------------------------------------------------|
D|-------------------------------------------------------------------------|
A|-0~---5~------------------0~----5~---------------------------------------|
E|------------3~-----0~-----------------3~----0~---------------------------|

Verse

G|-------------------------------------------------------------------------|
D|-------------------------------------------------------------------------|
A|--0-0-0-0-5-5-5-5--------------------------x6----------------------------|
E|-------------------3-3-3-3-0-0-0-0---------------------------------------|

G|-------------------------------------------------------------------------|
D|-------------------------------------------------------------------------|
A|-0--5---------0--5---------0~--------------------------------------------|
E|-------3--0---------3--0-------------------------------------------------|


may not be perfect but sounds good when i play this with my band! any questions feel 
to email me and please rate :)


| /  slide up
| \  slide down
| h  hammer-on
| p  pull-off
| ~  vibrato
| +  harmonic
| x  Mute note
===============================================================================
Suggest correction
Creating personal tab
Creating personal tab
You can edit any tab online and save it as your Personal.

You can edit, replace or remove any tab part or add personal notes – all changes will be seen only by you.

Personal tabs can be accessed anytime from any device, even offline.
Learn more »
comments
print report bad tab
guest
You may want to rate the tab now too:
select rating
Wanna post a correction for this tab? Suggest correction