Oops, an error
Loading. Please wait.
We have an official What Katie Did tab made by UG professional guitarists. Check out the tab »
×
30,389 views 6 this week
1 commentread comment
1 2 3 4 5
x 4
add to favorites
×
Save as Personal and add changes to this tab that will be seen only by you. Learn more ›
×
You can save this tab as Personal to edit and correct it or add notes. All changes will be seen only by you. Learn more »
launch autoscroll
font size
0
reset
how to read this tab
guitar tuner
edit
Autoscroll
slow
fast
+/-
esc
set tempo
stop
Author
-------------------------------------------------------------------------------
                 The Libertines - What Katie Did
-------------------------------------------------------------------------------


there are 2 different versions of this intro  and i saw this one wasnt tabbed anywhere i 
find so i
thought id tab it out myself.
if your not familiar with some of the chord shapes then you can just play the bottom 3 
and it still
sounds accurate.

> = downstroke
^ = upstroke


intro:

       A

       >    >    >     >     ^      >     ^       >

e|-----9----9----x-----9-----9------9-----9-------9-----x--------------------|
B|-----10---10---x-----10----10-----10----10------10----x--------------------|
G|-----9----9----x-----9-----9------9-----9-------9-----x--------------------|
D|-----11---11---x-----11----11-----11----11------11----x--------------------|
A|-----12---12---x-----12----12-----12----12------12----x--------------------|
E|---------------------------------------------------------------------------|


      C#m

       >     >    >     >     ^      >     ^       >

e|-----9-----9----x-----9-----9------9-----9-------9-----x-------------------|
B|-----9-----9----x-----9-----9------9-----9-------9-----x-------------------|
G|-----9-----9----x-----9-----9------9-----9-------9-----x-------------------|
D|-----11----11---x-----11----11-----11----11------11----x-------------------|
A|-----11----11---x-----11----11-----11----11------11----x-------------------|
E|-----9-----9----x-----9-----9------9-----9-------9-----x-------------------|

      F#m

       >    >     >     >     ^     >      ^       >

e|-----9----9-----x-----9-----9-----9------9-------9------x------------------|
B|-----10---10----x-----10----10----10-----10------10-----x------------------|
G|-----11---11----x-----11----11----11-----11------11-----x------------------|
D|-----11---11----x-----11----11----11-----11------11-----x------------------|
A|-----9----9-----x-----9-----9-----9------9-------9------x------------------|
E|---------------------------------------------------------------------------|

       D                 Dm
       >     >     >     >     ^      >     ^      >      ^


e|-----10----10----x-----10----10-----10----10-----10-----10----------------|
B|-----10----10----x-----10----10-----10----10-----10-----10----------------|
G|-----11----11----x-----10----10-----10----10-----10-----10----------------|
D|-----12----12----x-----12----12-----12----12-----12-----12----------------|
A|-----12----12----x-----12----12-----12----12-----12-----12----------------|
E|-----10----10----x-----10----10-----10----10-----10-----10----------------|

the rest of the song is just these chords

A C#m F#m D Dm but an octave lower in most cases. (see other versions of the song for 
and where to play
chords if you struggle with timing etc.

      A     C#m    F#m    D      Dm

e|----5------4------2-----5------5-----------------------|
B|----5------5------2-----7------6-----------------------|
G|----6------6------2-----7------7-----------------------|
D|----7------6------4-----7------7-----------------------|
A|----7------4------4-----5------5-----------------------|
E|----5-------------2------------------------------------|

            
            
Suggest correction
Creating personal tab
Creating personal tab
You can edit any tab online and save it as your Personal.

You can edit, replace or remove any tab part or add personal notes – all changes will be seen only by you.

Personal tabs can be accessed anytime from any device, even offline.
Learn more »
comments
print report bad tab
1 comment total.
0 reply
arctic_army_16 10 Jul 14, 2006 03:53 PM

this is amazing! sounds spot on to me and i have quite a gd ear for music so well done and thanks alot :D

guest
You may want to rate the tab now too:
select rating
Wanna post a correction for this tab? Suggest correction