Oops, an error
Loading. Please wait.

What Katie Did tab

version 2
version 2

Whole song

Interactive

52,919 views 36 this week
3 commentsread comments
1 2 3 4 5
x 16
add to favorites
×
Save as Personal and add changes to this tab that will be seen only by you. Learn more ›
×
You can save this tab as Personal to edit and correct it or add notes. All changes will be seen only by you. Learn more »
launch autoscroll
font size
0
reset
how to read this tab
guitar tuner
edit
Autoscroll
slow
fast
+/-
esc
set tempo
stop
Author
Difficulty
The Libertines – What Katie Did

I have included the lyrics with timing as well. The only part not included in the tab is
part of the song where it stops then starts again. The part after the break, I don't
play that part anyway. But if you really want that part e-mail me from my address at the
and I'll tab it out for you. :)

intro

       A

e|-----9----9----x-----9-----9------9-----9-------9-----x------------------|
B|-----10---10---x-----10----10-----10----10------10----x------------------|
G|-----9----9----x-----9-----9------9-----9-------9-----x------------------|
D|-----11---11---x-----11----11-----11----11------11----x------------------|
A|-----12---12---x-----12----12-----12----12------12----x------------------|
E|-------------------------------------------------------------------------|

       C#m

e|-----9-----9----x-----9-----9------9-----9-------9-----x-----------------|
B|-----9-----9----x-----9-----9------9-----9-------9-----x-----------------|
G|-----9-----9----x-----9-----9------9-----9-------9-----x-----------------|
D|-----11----11---x-----11----11-----11----11------11----x-----------------|
A|-----11----11---x-----11----11-----11----11------11----x-----------------|
E|-----9-----9----x-----9-----9------9-----9-------9-----x-----------------|

       F#m

e|-----9----9-----x-----9-----9-----9------9-------9------x----------------|
B|-----10---10----x-----10----10----10-----10------10-----x----------------|
G|-----11---11----x-----11----11----11-----11------11-----x----------------|
D|-----11---11----x-----11----11----11-----11------11-----x----------------|
A|-----9----9-----x-----9-----9-----9------9-------9------x----------------|
E|-------------------------------------------------------------------------|

       D                 Dm

e|-----10----10----x-----10----10-----10----10-----10-----10---------------|
B|-----10----10----x-----10----10-----10----10-----10-----10---------------|
G|-----11----11----x-----10----10-----10----10-----10-----10---------------|
D|-----12----12----x-----12----12-----12----12-----12-----12---------------|
A|-----12----12----x-----12----12-----12----12-----12-----12---------------|
E|-----10----10----x-----10----10-----10----10-----10-----10---------------|

Chorus 1

       A

e|-----9----9----x-----9-----9------9-----9-------9-----x------------------|
B|-----10---10---x-----10----10-----10----10------10----x------------------|
G|-----9----9----x-----9-----9------9-----9-------9-----x------------------|
D|-----11---11---x-----11----11-----11----11------11----x------------------|
A|-----12---12---x-----12----12-----12----12------12----x------------------|
E|-------------------------------------------------------------------------|
Shoop shoop, shoop de-lang-a-lang

      C#m

e|-----9-----9----x-----9-----9------9-----9-------9-----x-----------------|
B|-----9-----9----x-----9-----9------9-----9-------9-----x-----------------|
G|-----9-----9----x-----9-----9------9-----9-------9-----x-----------------|
D|-----11----11---x-----11----11-----11----11------11----x-----------------|
A|-----11----11---x-----11----11-----11----11------11----x-----------------|
E|-----9-----9----x-----9-----9------9-----9-------9-----x-----------------|
Shoop shoop, shoop de-lang-a-lang

      F#m

e|-----9------------------------------------------------|
B|-----10----10--------10---12\10---9-------------------|
G|-----11---------11--------------------11---9---7---6--|
D|-----11-----------------------------------------------|
A|-----9------------------------------------------------|
E|------------------------------------------------------|
S-------------------------------------------------------|
hoop shoop, shoop de-lang-a-lang  Shoop shoop, shoop de-lang-a-lang

      A

e|----5------5------5-----5------------------------------|
B|----5------5------5-----5------------------------------|
G|----6------6------6-----6------------------------------|
D|----7------7------7-----7------------------------------|
A|----7------7------7-----7------------------------------|
E|----5------5------5-----5------------------------------|
Shoop shoop, shoop de-lang-a-lang

      C#m

e|----4------4------4-----4------------------------------|
B|----5------5------5-----5------------------------------|
G|----6------6------6-----6------------------------------|
D|----6------6------6-----6------------------------------|
A|----4------4------4-----4------------------------------|
E|-------------------------------------------------------|
Shoop shoop, shoop de-lang-a-lang

      F#m

e|----2------2------2-----2------------------------------|
B|----2------2------2-----2------------------------------|
G|----2------2------2-----2------------------------------|
D|----4------4------4-----4------------------------------|
A|----4------4------4-----4------------------------------|
E|----2------2------2-----2------------------------------|
Shoop shoop, shoop de-lang-a-lang


      D                   Dm

e|----5------5------5-----5------5------5------5---------|
B|----7------7------7-----6------6------6------6---------|
G|----7------7------7-----7------7------7------7---------|
D|----7------7------7-----7------7------7------7---------|
A|----5------5------5-----5------5------5------5---------|
E|-------------------------------------------------------|
Shoop shoop, shoop de-lang-a-lang

Verse 1

       A

e|-----9----9----x-----9-----9------9-----9-------9-----x------------------|
B|-----10---10---x-----10----10-----10----10------10----x------------------|
G|-----9----9----x-----9-----9------9-----9-------9-----x------------------|
D|-----11---11---x-----11----11-----11----11------11----x------------------|
A|-----12---12---x-----12----12-----12----12------12----x------------------|
E|-------------------------------------------------------------------------|
Oh what you gonna

       C#m

e|-----9-----9----x-----9-----9------9-----9-------9-----x-----------------|
B|-----9-----9----x-----9-----9------9-----9-------9-----x-----------------|
G|-----9-----9----x-----9-----9------9-----9-------9-----x-----------------|
D|-----11----11---x-----11----11-----11----11------11----x-----------------|
A|-----11----11---x-----11----11-----11----11------11----x-----------------|
E|-----9-----9----x-----9-----9------9-----9-------9-----x-----------------|
do, Katie?             You're a sweet sweet girl.

       F#m

e|-----9----9-----x-----9-----9-----9------9-------9------x----------------|
B|-----10---10----x-----10----10----10-----10------10-----x----------------|
G|-----11---11----x-----11----11----11-----11------11-----x----------------|
D|-----11---11----x-----11----11----11-----11------11-----x----------------|
A|-----9----9-----x-----9-----9-----9------9-------9------x----------------|
E|-------------------------------------------------------------------------|
You're a sweet sweet girl.

       D                 Dm

e|-----10----10----x-----10----10-----10----10-----10-----10---------------|
B|-----10----10----x-----10----10-----10----10-----10-----10---------------|
G|-----11----11----x-----10----10-----10----10-----10-----10---------------|
D|-----12----12----x-----12----12-----12----12-----12-----12---------------|
A|-----12----12----x-----12----12-----12----12-----12-----12---------------|
E|-----10----10----x-----10----10-----10----10-----10-----10---------------|
But it's a cruel, cruel world   a cruel, cruel world.


       A

e|-----9----9----x-----9-----9------9-----9-------9-----x------------------|
B|-----10---10---x-----10----10-----10----10------10----x------------------|
G|-----9----9----x-----9-----9------9-----9-------9-----x------------------|
D|-----11---11---x-----11----11-----11----11------11----x------------------|
A|-----12---12---x-----12----12-----12----12------12----x------------------|
E|-------------------------------------------------------------------------|
My pins are none
      C#m

e|----4------4------4-----4------------------------------|
B|----5------5------5-----5------------------------------|
G|----6------6------6-----6------------------------------|
D|----6------6------6-----6------------------------------|
A|----4------4------4-----4------------------------------|
E|-------------------------------------------------------|
too strong, Katie.
      F#m

e|----2------2------2-----2------------------------------|
B|----2------2------2-----2------------------------------|
G|----2------2------2-----2------------------------------|
D|----4------4------4-----4------------------------------|
A|----4------4------4-----4------------------------------|
E|----2------2------2-----2------------------------------|
Oh hurry up, Mrs Brown

      D                   Dm

e|----5------5------5-----5------5------5------5---------|
B|----7------7------7-----6------6------6------6---------|
G|----7------7------7-----7------7------7------7---------|
D|----7------7------7-----7------7------7------7---------|
A|----5------5------5-----5------5------5------5---------|
E|-------------------------------------------------------|
I can feel it coming down    & it won't take none too long

       A

e|-----9----9----x------------------|
B|-----10---10---x------------------|
G|-----9----9----x------------------|
D|-----11---11---x------------------|
A|-----12---12---x------------------|
E|----------------------------------|

      C#m

e|----4------4----------------------|
B|----5------5----------------------|
G|----6------6----------------------|
D|----6------6----------------------|
A|----4------4----------------------|
E|----------------------------------|
But since you said goodbye,  Polka Dots

      F#m

e|----2------2----------------------------|
B|----2------2----------------------------|
G|----2------2----------------------------|
D|----4------4----------------------------|
A|----4------4----------------------------|
E|----2------2----------------------------|
fill my eyes        And I don't know why

      D                   Dm

e|----5------5------5-----5-------|
B|----7------7------7-----6-------|
G|----7------7------7-----7-------|
D|----7------7------7-----7-------|
A|----5------5------5-----5-------|
E|--------------------------------|

Solo

e|-----------------------------------------|
B|-----------------------------------------|
G|-----------------------------------------|
D|--------------------9--11----------------|
A|----12--12--11--12---------11------------|
E|-----------------------------------------|

e|-------------------------------------------------------|
B|---**5--7--9--10-----12--10--12—10**----12b13--12--10--|
G|-------------------------------------------------------|
D|-------------------------------------------------------|
A|-------------------------------------------------------|
E|-------------------------------------------------------|
       **^Tremolo Pick these notes^**

Chorus 2

A

e|-----9----9----x-----9-----9------9-----9-----|
B|-----10---10---x-----10----10-----10----10----|
G|-----9----9----x-----9-----9------9-----9-----|
D|-----11---11---x-----11----11-----11----11----|
A|-----12---12---x-----12----12-----12----12----|
E|----------------------------------------------|
Shoop shoop, shoop de-lang-a-lang


      C#m

e|-----9-----9----x-----9-----9----|
B|-----9-----9----x-----9-----9----|
G|-----9-----9----x-----9-----9----|
D|-----11----11---x-----11----11---|
A|-----11----11---x-----11----11---|
E|-----9-----9----x-----9-----9----|
Shoop shoop, shoop de-lang-a-lang

       F#m

e|-----9----9-----x-----9-----9----|
B|-----10---10----x-----10----10---|
G|-----11---11----x-----11----11---|
D|-----11---11----x-----11----11---|
A|-----9----9-----x-----9-----9----|
E|---------------------------------|
Shoop shoop, shoop de-lang-a-lang

D                 Dm

e|-----10----10----x-----10----10----|
B|-----10----10----x-----10----10----|
G|-----11----11----x-----10----10----|
D|-----12----12----x-----12----12----|
A|-----12----12----x-----12----12----|
E|-----10----10----x-----10----10----|
Shoop shoop, shoop de-lang-a-lang

Verse 2

       A

e|-----9----9----x-----9-----9------9-----9-------9-----x------------------|
B|-----10---10---x-----10----10-----10----10------10----x------------------|
G|-----9----9----x-----9-----9------9-----9-------9-----x------------------|
D|-----11---11---x-----11----11-----11----11------11----x------------------|
A|-----12---12---x-----12----12-----12----12------12----x------------------|
E|-------------------------------------------------------------------------|
What you gonna

       C#m

e|-----9-----9----x-----9-----9------9-----9-------9-----x-----------------|
B|-----9-----9----x-----9-----9------9-----9-------9-----x-----------------|
G|-----9-----9----x-----9-----9------9-----9-------9-----x-----------------|
D|-----11----11---x-----11----11-----11----11------11----x-----------------|
A|-----11----11---x-----11----11-----11----11------11----x-----------------|
E|-----9-----9----x-----9-----9------9-----9-------9-----x-----------------|
do Katie?

       F#m

e|-----9----9-----x-----9-----9-----9------9-------9------x----------------|
B|-----10---10----x-----10----10----10-----10------10-----x----------------|
G|-----11---11----x-----11----11----11-----11------11-----x----------------|
D|-----11---11----x-----11----11----11-----11------11-----x----------------|
A|-----9----9-----x-----9-----9-----9------9-------9------x----------------|
E|-------------------------------------------------------------------------|
You're a sweet, sweet girl

       D                 Dm

e|-----10----10----x-----10----10-----10----10-----10-----10---------------|
B|-----10----10----x-----10----10-----10----10-----10-----10---------------|
G|-----11----11----x-----10----10-----10----10-----10-----10---------------|
D|-----12----12----x-----12----12-----12----12-----12-----12---------------|
A|-----12----12----x-----12----12-----12----12-----12-----12---------------|
E|-----10----10----x-----10----10-----10----10-----10-----10---------------|
But it's a cruel, cruel world    a cruel, cruel world

A

e|-----9----9----x-----9-----9------9-----9-------9-----x------------------|
B|-----10---10---x-----10----10-----10----10------10----x------------------|
G|-----9----9----x-----9-----9------9-----9-------9-----x------------------|
D|-----11---11---x-----11----11-----11----11------11----x------------------|
A|-----12---12---x-----12----12-----12----12------12----x------------------|
E|-------------------------------------------------------------------------|
my safety pins are none too strong Katie

      C#m

e|----4------4------4-----4------------------------------|
B|----5------5------5-----5------------------------------|
G|----6------6------6-----6------------------------------|
D|----6------6------6-----6------------------------------|
A|----4------4------4-----4------------------------------|
E|-------------------------------------------------------|
none too strong Katie

      F#m

e|----2------2------2-----2------------------------------|
B|----2------2------2-----2------------------------------|
G|----2------2------2-----2------------------------------|
D|----4------4------4-----4------------------------------|
A|----4------4------4-----4------------------------------|
E|----2------2------2-----2------------------------------|
they hold my life together

      D                   Dm

e|----5------5------5-----5------5------5------5---------|
B|----7------7------7-----6------6------6------6---------|
G|----7------7------7-----7------7------7------7---------|
D|----7------7------7-----7------7------7------7---------|
A|----5------5------5-----5------5------5------5---------|
E|-------------------------------------------------------|
And I never say never   I never say never again

  A

e|-----9----9----x------------------|
B|-----10---10---x------------------|
G|-----9----9----x------------------|
D|-----11---11---x------------------|
A|-----12---12---x------------------|
E|----------------------------------|

      C#m

e|----4------4----------------------|
B|----5------5----------------------|
G|----6------6----------------------|
D|----6------6----------------------|
A|----4------4----------------------|
E|----------------------------------|
Oh but since you said goodbye, There are

      F#m

e|----2------2----------------------------|
B|----2------2----------------------------|
G|----2------2----------------------------|
D|----4------4----------------------------|
A|----4------4----------------------------|
E|----2------2----------------------------|
Polka Dots in my eyes        And I don't know why

      D                   Dm

e|----5------5------5-----5-------|
B|----7------7------7-----6-------|
G|----7------7------7-----7-------|
D|----7------7------7-----7-------|
A|----5------5------5-----5-------|
E|--------------------------------|


       A      C#m F#m                         D     Dm       A


e|-----9------9---9-----------------------------------10-----9--|
B|-----10-----9---10----------------------------------10-----10-|
G|-----9------9---11--------------------------10------10-----9--|
D|-----11-----11--11-----------------------------11---12-----11-|
A|-----12-----11--9--------------------------------11-12-----12-|
E|------------9---------------------------------------10--------|
Since you said goodbye   The polka dots fill my eyes   And I don't know why

Enjoy Mark
Any corrections marklovescake@hotmail.co.uk

            
            
Suggest correction
Creating personal tab
Creating personal tab
You can edit any tab online and save it as your Personal.

You can edit, replace or remove any tab part or add personal notes – all changes will be seen only by you.

Personal tabs can be accessed anytime from any device, even offline.
Learn more »
comments
print report bad tab
3 comments total.
+1 reply
punkrockerlibs 10 Aug 16, 2006 10:09 AM

sounds completely right, great tab mate!!

+1 reply
violins 10 Oct 18, 2007 08:12 AM

Wow my pinky is too lame for that A chord. I guess if you just wanna play parts of the song you can throw a Capo at the 9th freth

+1 reply
Stoned picker 10 Aug 17, 2009 08:08 AM

that all comes wid practice and seeing how this messagfe is 2 years late im sure u can nail this and much more by now!!"! awesome tab by the way i love it.

guest
You may want to rate the tab now too:
select rating
Wanna post a correction for this tab? Suggest correction