Oops, an error
Loading. Please wait.

Behind The Dark tab

247 views 6 this week
no commentswrite comment
1 2 3 4 5
3 more votes to show rating
add to favorites
×
Save as Personal and add changes to this tab that will be seen only by you. Learn more ›
×
You can save this tab as Personal to edit and correct it or add notes. All changes will be seen only by you. Learn more »
launch autoscroll
font size
0
reset
how to read this tab
guitar tuner
edit
Autoscroll
slow
fast
+/-
esc
set tempo
stop
Author
[Intro]

   Am                       E
e|------------------------------------------------------|
B|--------------1------------------------0--------------|
G|--------2--------2------1--------1--------1-----1-----|
D|-----2-----2--------2---------2-----2--------2--------|
A|--0------------------------2--------------------------|
E|------------------------------------------------------|

   F                        C          Em
e|------------------------------------------------------|
B|--------------0---------------------------------------|
G|--------2--------2-----0--------0-----------0---------|
D|-----3-----3--------3--------2-----2-----2-----2------|
A|--3-----------------------3-----------2---------------|
E|------------------------------------------------------|


[Verse 1]
Am            E           F       C Em
 There was an eagle in my cavern 

Am          E             F   C Em
 In front of me began to fly 

Am            E          F        C Em
 Through the darkness I discover 

      Am           E          F    C Em
 The lies now, are echoes of past. 


[Verse 2]

Am            E             F    C Em
 We turn the pages left to right 

 Am                E    
 Step back on the future 

 F            C Em
 Reading fast 

    Am          E       F     C Em
 I put in order all my dreams 

 Am             E      F
 I can see the light behind the dark. 


[Verse 3]

Am             E          F      C Em
 There was an eagle in my cavern 

E                 F    G
 Across the darkness I missed

 Am          E              F    C Em
 We turn the pages left to right 

 Am                E
 Step back on the future 

 F            C Em
 Reading fast 

    Am          E       F     C Em
 I put in order all my dreams 

 Am             E      F             C Em     
 I can see the light behind the dark

   Am
 Behind the dark.

            
            
Suggest correction
Creating personal tab
Creating personal tab
You can edit any tab online and save it as your Personal.

You can edit, replace or remove any tab part or add personal notes – all changes will be seen only by you.

Personal tabs can be accessed anytime from any device, even offline.
Learn more »
Give kudos to tab author, rate the tab!
1 2 3 4 5
comments
print report bad tab
guest
You may want to rate the tab now too:
select rating
Wanna post a correction for this tab? Suggest correction