Oops, an error
Loading. Please wait.

Mars Vs Hollywood Tab

version 1
version 1

Whole song

579 views 1 this week
no commentswrite comment
1 2 3 4 5
2 more votes to show rating
add to favorites
launch autoscroll
font size
0
reset
how to read this tab
guitar tuner
Autoscroll
slow
fast
+/-
esc
set tempo
stop
Help us to improve Ultimate-Guitar.com Take our survey!
×
The Lillingtons - Mars Vs. Hollywood


Intro:

|------------|
|------------|
|-555555-----|     
|-555555-3-5-|  2x
|-333333-3-5-|
|--------1-3-|

|------------|
|------------|
|------------|
|-777777-3-5-|  1x
|-777777-3-5-|
|-555555-1-3-|


|------------|
|------------|
|-5555-------|     
|-5555-33-55-|  1x
|-3333-33-55-|
|------11-33-|


Verse:

|------------|
|------------|
|-5555-------|     
|-5555-33-55-|  2x
|-3333-33-55-|
|------11-33-|

|------------|
|------------|
|------------|
|-7777-33-55-|  1x
|-7777-33-55-|
|-5555-11-33-|

|------------|
|------------|
|-5555-------|     
|-5555-33-55-|  1x
|-3333-33-55-|
|------11-33-|

Pre Chours:

|--------------------|
|--------------------|
|----------5555------|
|-33333333-5555-5555-|  1x
|-33333333-3333-5555-|
|-11111111------3333-|

|--------------------|
|--------------------|
|--------------------|
|-77777777-3333-5555-|  1x
|-77777777-3333-5555-|
|-55555555-1111-3333-|


Chours:

|---------------------|
|---------------------|
|-5555----------------|
|-5555-5555-7777-3333-|  1x
|-3333-5555-7777-3333-|
|------3333-5555-1111-|

|---------------------|
|---------------------|
|-5555----------------|
|-5555-5555-3333-5555-|  1x
|-3333-5555-3333-5555-|
|------3333-1111-3333-|

Ending:

|-----------------|
|-----------------|
|-5555------------|
|-5555-5555--3333-|
|-3333-5555--3333-|
|------3333--1111-|



Solo:

|---------|
|-1-3-5-3-| 3x
|---------|
|---------|
|---------|
|---------|

|---------|
|-6-3-5-3-| 1x
|---------|
|---------|
|---------|
|---------|

|---------|
|-1-3-5-3-| 3x
|---------|
|---------|
|---------|
|---------|

|---------------|
|-1--3--5-3-5-3-| 1x
|---------------|
|---------------|
|---------------|
|---------------|


Sequence:

Intro: 2x
Verse: 2x
Pre Chours: 1x
Chours: 2x
Solo: 2x
Intro: 2x
Verse: 2x
Pre Chours: 1x
Chours: 2x
Ending: 4x


Suggest correction
Give kudos to tab author, rate the tab!
1 2 3 4 5
comments
print report bad tab
guest
You may want to rate the tab now too:
select rating
Wanna post a correction for this tab? Suggest correction