Oops, an error
Loading. Please wait.

Ultramarine Tab

90 views 1 this week
1 commentread comment
1 2 3 4 5
please rate
add to favorites
launch autoscroll
font size
0
reset
how to read this tab
guitar tuner
Autoscroll
slow
fast
+/-
esc
set tempo
stop
Help us to improve Ultimate-Guitar.com Take our survey!
×
Author
Difficulty
Band/Artist: The Lines
Song: "Ultramarine"
Album: Flood Bank (CD, 2008) Ultramarine (LP, 1983)

standard tuning

Guitar
RIFF I
  D
e-2-----------------------------------------------------|
B-3-----------------------------------------------------|
G-2-----------------------------------------------------|
D-0-----------------------------------------------------|
A-------------------------------------------------------|
E-------------------------------------------------------|
cont.
  Ddim                        Dsus2
e-1---------------------------0-------------------------|
B-3---------------------------3-------------------------|
G-1---------------------------2-------------------------|
D-0---------------------------0-------------------------|
A-------------------------------------------------------|
E-------------------------------------------------------|

RIFF II
  D                           G/E           C5
e-------------------------------------------------------|
B-------------------------------------------------------|
G-------------------------------------------------------|
D-4---------------------------5-------------5-----------|
A-5---------------------------7-------------3-----------|
E-------------------------------------------------------|
cont.
  D
e-------------------------------------------------------|
B-------------------------------------------------------|
G-------------------------------------------------------|
D-4-----------------------------------------------------|
A-5-----------------------------------------------------|
E-------------------------------------------------------|

RIFF III
e--------------------------------------0-----0----------|
B-----------------------------------3-----------3-------|
G--------------------------------4----------------(4)---|
D-----------------------------4-------------------------|
A-------------------------------------------------------|
E-------------------------------------------------------|

Song structure:

RIFF I x 2
RIFF II x 2
VERSE I, keyboard plays chords:
D                                 Em       C
  As the boat pulls out across the  bay 
D                                 Em       C
              Harbor lights and     living waves and
D                                 Em       C
     The wind   it blows into  my    heart
D                                 Em       C
              All the rites   and        occasion
RIFF I x 1
VERSE II, keyboard plays chords:
D                                 Em       C
     I feel  the deck  begin  to     heave     
D                                 Em       C
              I       hear  the      wood  creaking   
D                                 Em       C
  On a boat that plows  into  the    foam
D                                 Em       C
              All     the ocean      is    breaking
RIFF I x 1
RIFF III:
The words that I've clung to
Written in the sand
Lay until tide turns
???? ??? ? ???? ????
RIFF I x 1
RIFF II x 1
BRIDGE, only bass plays:
The sunlight burning through me
Is all it's everything moving
All these rivers embarking on a journey
To an everlasting sea
RIFF I x 1
RIFF III:
The words that I've clung to
Written in the sand
Lay until tide turns
???? ??? ? ???? ????
RIFF I x 1
RIFF II x 8



That's it. Please feel free to leave comments, corrections, suggestions, and requests. Cheers!

-Bennyshambles78-
Suggest correction
Give kudos to tab author, rate the tab!
1 2 3 4 5
comments
print report bad tab
1 comment total.
0 reply
bennyshambles78 4,124 wrote on October 2 2012, 05:41 pm

I made a mistake on RIFF III, so here's the correction:

RIFF III


e--------------------------------------0----------------|
B-----------------------------------3--------3----------|
G--------------------------------4--------------4-------|
D-----------------------------4-------------------(4)---|
A-------------------------------------------------------|
E-------------------------------------------------------|

guest
You may want to rate the tab now too:
select rating
Please do not post tabs as comments. Select "correction" instead!