Oops, an error
Loading. Please wait.

Vapor tab

368 views 1 this week
no commentswrite comment
1 2 3 4 5
x 3
add to favorites
×
Save as Personal and add changes to this tab that will be seen only by you. Learn more ›
×
You can save this tab as Personal to edit and correct it or add notes. All changes will be seen only by you. Learn more »
launch autoscroll
font size
0
reset
how to read this tab
guitar tuner
edit
Autoscroll
slow
fast
+/-
esc
set tempo
stop
Author
Difficulty
Artist: The Liturgists
Song: Vapor
Tuning: Standard

[Intro]
    Bm         G
e|----------------------------------------|
B|----------------------------------------|
G|----------------------------------------| 
D|-----0--0-------0--0-----0--0-----0--0--|
A|--2-------------------------------------|
E|-------------3--------------------------|

[Verse 1]
    Bm         G                            Bm            G       D/A 
e|-------------------------------------------------------------------------------|
B|-------------------------------------------------------------------------------|
G|-------------------------------------------------------------------------------| 
D|-----0--0-------0--0----0--0----0--0-------0--0-------0--0-------0--0----0--0--|
A|--2-------------------------------------2---------------------0----------------|
E|-------------3-------------------------------------3---------------------------|
    Oh the vapor of it all                 It’s a chasing of the wind

    Bm         G                            Bm            G         
e|-------------------------------------------------------------------------------|
B|-------------------------------------------------------------------------------|
G|-------------------------------------------------------------------------------| 
D|-----0--0-------0--0----0--0----0--0-------0--0-------0--0----0--0----0--0-----|
A|--2-------------------------------------2--------------------------------------|
E|-------------3-------------------------------------3---------------------------|
The powers of the earth so pale and thin. We will set our hearts on you again

[Instrumental] (Intro) x2

[Verse 2]
    Bm         G                            Bm            G       D/A 
e|-------------------------------------------------------------------------------|
B|-------------------------------------------------------------------------------|
G|-------------------------------------------------------------------------------| 
D|-----0--0-------0--0----0--0----0--0-------0--0-------0--0-------0--0----0--0--|
A|--2-------------------------------------2---------------------0----------------|
E|-------------3-------------------------------------3---------------------------|
    Heaven taunts the hearts of men         We can feel it from within

    Bm         G                            Bm            G         
e|-------------------------------------------------------------------------------|
B|-------------------------------------------------------------------------------|
G|-------------------------------------------------------------------------------| 
D|-----0--0-------0--0----0--0----0--0-------0--0-------0--0----0--0----0--0-----|
A|--2-------------------------------------2--------------------------------------|
E|-------------3-------------------------------------3---------------------------|
      The beauty of it all, the mystery.     The swelling of a voice, a rising sea 


[Chorus 1] (quiet single strums)
D                     Bm 
Holy,   You oh God are Holy 
                  G   
Trees clap their hands for you   
             A 
Oceans they dance for you   
          Bm G Bm G D 
You are holy 

[Verse 3]
    Bm         G                            Bm            G       D/A 
e|-------------------------------------------------------------------------------|
B|-------------------------------------------------------------------------------|
G|-------------------------------------------------------------------------------| 
D|-----0--0-------0--0----0--0----0--0-------0--0-------0--0-------0--0----0--0--|
A|--2-------------------------------------2---------------------0----------------|
E|-------------3-------------------------------------3---------------------------|
    Oh the mystery of it all                I can never peer within 

    Bm         G                            Bm            G         
e|-------------------------------------------------------------------------------|
B|-------------------------------------------------------------------------------|
G|-------------------------------------------------------------------------------| 
D|-----0--0-------0--0----0--0----0--0-------0--0-------0--0----0--0----0--0-----|
A|--2-------------------------------------2--------------------------------------|
E|-------------3-------------------------------------3---------------------------|
     Could never find the words or understand. The fullness of a God   become a man 

[Chorus 2] (strumming)
D                     Bm 
Holy,   You oh God are Holy 
                  G   
Trees clap their hands for you   
             A 
Oceans they dance for you   
          Bm G              Bm G D 
You are holy, infinite and holy
               G 
A billion suns rise for you   
                  A 
Clouds paint the skies for you 
                 G 
Mountains stand tall for you   
            A 
Valleys bow down to you   
              G/B                  A 
Everything rising to sing all our songs for you 

[Bridge] (x2) (strumming)
Bm     G    D     A/C#
Oh oh oh oh oh oh oh oh
Bm     G    D 
Oh oh oh oh oh 

[Chorus 3] (start quiet, start to build)
D                          Bm 
Holy, the Impossible and Holy 
              G 
Kings become fools for you 
             A 
Kingdoms to ruins for you 
            G 
Vapor finds ground in you 
             A 
Music finds sound for you 
            G/B                A/C# 
Everything rising, everything rising, everything rising, (singing)

[Bridge] (x2)

[Outro]
Bm         G          D         A/C# 
Come like dawn   like waves,  like sunlight
Bm         G        D
Bring this world to life 
Bm         G          D          A/C# 
Come like rain   like breath, like springtime 
Bm         G        D
Bring this world to life 

[End]
Bm G D A/C# Bm G D

            
            
Suggest correction
Creating personal tab
Creating personal tab
You can edit any tab online and save it as your Personal.

You can edit, replace or remove any tab part or add personal notes – all changes will be seen only by you.

Personal tabs can be accessed anytime from any device, even offline.
Learn more »
Give kudos to tab author, rate the tab!
1 2 3 4 5
comments
print report bad tab
guest
You may want to rate the tab now too:
select rating
Wanna post a correction for this tab? Suggest correction