Oops, an error
Loading. Please wait.

1015 Saturday Night Bass Tab

version 1
version 1

Whole song

Interactive

555 views 1 this week
no commentswrite comment
1 2 3 4 5
please rate
add to favorites
launch autoscroll
font size
0
reset
guitar tuner
Autoscroll
slow
fast
+/-
esc
set tempo
stop
Help us to improve Ultimate-Guitar.com Take our survey!
×
Difficulty
intermediate
Intro
g---------------------------------------------------|
d---------------------------------------------------|
a---------------------------------------------------|Repeat Until PRE-chorus
e-0--0--0--0----------------------------------------|


PRE-chorus
g---------------------------------------------------|
d---------------------------------------------------|
a--2-2-2-2---0-0---2-0------------------------------|
e----------------3----------------------------------|x4

Chorus Pt.1
g---------------------------------------------------|
d---------------------------------------------------|
a---------------------------------------------------|
e-3-3-3-3-3-3-3-3-2-2-2-2-2-2-2-2-------------------|x4

Chorus (Middle)
g---------------------------------------------------|
d---------------------------------------------------|
a---9-9-9-7-7-7-------------------------------------|
e---------------------------------------------------|

Chorus Pt.2
g---------------------------------------------------|
d------------4----4---------------------------------|
a---------------------------------------------------|
e--3-3-3-3-2---2------------------------------------|

Intro
Chorus Pt.1
Chorus Mid
Chorus Pt.2
Intro
Chorus Pt.1
Chorus Mid
Chorus Pt.2
Intro
Chorus Pt.1
Chorus Mid
Chorus Pt.2
Intro
Suggest correction
Give kudos to tab author, rate the tab!
1 2 3 4 5
comments
print report bad tab
guest
You may want to rate the tab now too:
select rating
Please do not post tabs as comments. Select "correction" instead!